Oops, an error
Loading. Please wait.

In The Arms Of God Tab

2,487 views 1 this week
no commentswrite comment
1 2 3 4 5
please rate
add to favorites
launch autoscroll
font size
0
reset
how to read this tab
guitar tuner
Autoscroll
slow
fast
+/-
esc
set tempo
stop
Help us to improve Ultimate-Guitar.com Take our survey!
×
Band- Corrosion of Conformity
Song- In The Arms God

TUNING CGCFAD

RIFF 1

--------------------------------------------------------------------------|
--------------------------------------------------------------------------|
--------------------------------------------------------------------------|
--------------------------------------------------------------------------|
----------5H6--5-----------5H6--5-------------5H6------5H6------5H6---8---|
---0--0-------------0--0--------------0--0---------0---------0------------|

RIFF 2

AT FIRST THE RYTHYM IS A BUNCH OF OPENS ON THE LOW C BUT WILL EVENTUALLY CHANGE TO THIS

-------------------------|
-------------------------|
-------------------------|
-------------------------|
-------------------------|
--0----3--5^--5---0------|


THIS PART GOES ALONG WITH RIFF 2  PLAY THIS ALONG WITH THE SONG
BECAUSE IM NOT EXACTLY SURE HOW MANY TIMES EACH CHORD IS PLAYED

-----  ------  ------   --------|
-----  ------  ------   --------|
-10--  --12--  --14--   ---17---|
-----  ------  -------  --------|
-8---  - 10--  --12---  ---15---|
-----  ------  -------  --------|
14 X    14 X     8 X       8 X

----- ------- ------- ------ ------- ------ ------ --------
----- ------- ------- ------ ------- ------ ------ --------
--10- ---12-- ---14-- ---17- ---19-- --17-- --19-- --17----
----- ------- ------- ------ ------- ------ ------ --------
--8-- ---10-- ---12-- ---15- ---17-- --15-- --17-- ---15---
----- ------- ------- ------ ------- ------ ------ --------
14 X    14 X    8 X     8 X     8 X    8 X    8 X     8 X

------ ----- ------ ----- ------- ------- ------ --------
------ ----- ------ ----- ------- ------- ------ -------
--10-- --9-- ---7-- --5-- ---19-- ---17-- --19-- --17---
------ ----- ------ ----- ------  ------  ------ -------
--8--- --7-- ---5-- --3-- ---17-- ---15-- --17-- --15---
------ ----- ------ ----- ------- ------- ------ -------
 14 X   14 X    8 X   8 X    8 X    8 X     8 X    8 X

------ ---- ------ -------|
------ ---- ------ -------|
--10-- --9- ---7-- --5----|
------ ---- ------ -------|
--8--- --7- ---5-  --3----|
------ ---- ------ -------|
 14 X   8 X   8 X    8 X


RIFF 4 THIS IS THE MAIN RIFF


--------------------------------------------------------------------|
--------------------------------------------------------------------|
--------------------------------------------------------------------|
--6\3------------------6\3-------------------3-------3--8---5---6---|
--6\3------------------6\3-------------------3-------3--8---5---6---|
--6\3--00--0000-0000---6\3--00--0000--0000---3--000--3--8---5---6---|


RIFF 5

--------------------------------------|
--------------------------------------|
--------------------------------------|
--------------------------------------|
-------------------3H5--5----3H5--5---|
--0--3--0---5--6----------------------|


RIFF 6

----------------------------------------------|
----------------------------------------------|
--10--9--10---12--9-----14-12-14-15-12--------|
----------------------------------------------|
----------------------------------------------|
----------------------------------------------|


RIFF 7

------------------------------------------------------------------------------------|
------------------------------------------------------------------------------------|
------------------------------------------------------------------------------------|
--6\3------6\3--------6\3--6\3--6\3--------------6\3-----6\3-------6\3--6\3---------|
--6\3------6\3--------6\3--6\3--6\3--------------6\3-----6\3-------6\3--6\3---------|
--6\3-000--6\3--000---6\3--6\3--6\3---333--000---6\3-000-6\3-000---6\3--6\3--000----|
Suggest correction
Give kudos to tab author, rate the tab!
1 2 3 4 5
comments
print report bad tab
guest
You may want to rate the tab now too:
select rating
Please do not post tabs as comments. Select "correction" instead!