Oops, an error
Loading. Please wait.

Long Whip Big American Tab

version 2
version 2

Whole song

1,399 views 3 this week
no commentswrite comment
1 2 3 4 5
please rate
add to favorites
launch autoscroll
font size
0
reset
how to read this tab
guitar tuner
Autoscroll
slow
fast
+/-
esc
set tempo
stop
Help us to improve Ultimate-Guitar.com Take our survey!
×
Author
Difficulty
Tuning
novice
D G C F A D
   Long Whip / BIG AMERICA

 
/ or \ = slide in the direction indicated.

Tune down to D

Beginning and chorus 
d |-----------------------------------|
A |-----------------------------------|
C |-----------------------------------|
F |---------------------------------7-|
G |-7--5-----5-------5-----5----------|
D |-------8-------8-----8-----8--3----|
                                  h -]
Hold the last note in the beginning
Then...
d |-----------------------------|-------------------------------------|
A |-----------------------------|-------------------------------------|
F |-----------------------------|-5--5--5--5--5--5--5--5---7--7--5----|
C |-7--7--7--7-7-7-7--7--7--7-7-|-5--5--5—-5--5--5--5--5---7--7—-5----|
G |-7--7--7--7-7-7-7--7--7--7-7-|-3--3--3--3--3—-3--3--3---5--5--3----|
D |-5--5--5--5-5-5-5--5--5--5-5-|-------------------------------------|

d |-----------------------------|---------------------------|
A |-----------------------------|---------------------------|
F |-----------------------------|---------------------------|
C |-7--7--7--7-7-7-7--7--7--7-7-|-5--5--5--5-5-5-5--4--4--5-|
G |-7--7--7--7-7-7-7--7--7--7-7-|-5--5--5--5-5-5-5--4--4--5-|
D |-5--5--5--5-5-5-5--5--5--5-5-|-3--3--3--3-3-3-3--2--2--3-|

This is also played throughout the verses but is muted.

And....
"Take it all away"                   "Take me"
d |-----------------|--------------------------------------|
A |-----------------|--------------------------------------|
C |-4---7--7--------|-------5--5--5/7\5---------5--5--7----|
F |-4---7--7--5--6--|-7--7--5--5--5/7\5---7--7--5--5--7----|
G |-2---5--5--5--6--|-7--7--3—-3--3/5\3---7--7--3--3--5----|
D |-----------3--4--|-5--5----------------5--5-------------|
                  


Got some help tabbing this from the vote with a bullet site. 
Suggest correction
Give kudos to tab author, rate the tab!
1 2 3 4 5
comments
print report bad tab
guest
You may want to rate the tab now too:
select rating
Wanna post a correction for this tab? Suggest correction