Oops, an error
Loading. Please wait.

Mano De Mono Tab

version 2
version 2

Whole song

1,532 views 1 this week
2 commentsread comments
1 2 3 4 5
x 3
add to favorites
launch autoscroll
font size
0
reset
how to read this tab
guitar tuner
Autoscroll
slow
fast
+/-
esc
set tempo
stop
Help us to improve Ultimate-Guitar.com Take our survey!
×
Author
Difficulty
Corrosion of Conformity – Mano De Mono

Really easy song! Sounds cool though! Contact me at: rattlehead.coolio@hotmail.com

There are two acoustic guitars playing the same notes
e|-----1--p0-------------|------1-p0-----------------|
B|-------------/5--------|--------------/5--3--------|
G|-2---------------------|-/2------------------------|
D|-----------------------|---------------------------|
A|-----------------------|---------------------------|
E|-----------------------|---------------------------|

e|-----1-p0--------------|-----1-p0-----------------|
B|-------------/5--------|-------------/5-----------|
G|-2---------------------|-2---------------3--------|
D|-----------------------|--------------------------|
A|-----------------------|--------------------------|
E|-----------------------|--------------------------|

e|-----1-p0--------------|------1-p0-----------------|
B|-------------/5--------|--------------/5--3--------|
G|-2---------------------|-2-------------------------|
D|-----------------------|---------------------------|
A|-----------------------|---------------------------|
E|-----------------------|---------------------------|

e|-----1-p0--------------|-----1-p0-----------------|
B|-------------/5--------|-------------/5-----------|
G|-2---------------------|-2---------------3--------|
D|-----------------------|--------------------------|
A|-----------------------|--------------------------|
E|-----------------------|--------------------------|

One guitar (electric)
e|-5~~~----5--5--5h6p5--\3--3~----|-0h1~~~------1—1--1h3p1p0----0h1p0--------1--/5~~~~~-|
B|--------------------------------|------------------------------------2~~--------------|
G|--------------------------------|-----------------------------------------------------|
D|--------------------------------|-----------------------------------------------------|
A|--------------------------------|-----------------------------------------------------|
E|--------------------------------|-----------------------------------------------------|

Enjoy!
Suggest correction
Give kudos to tab author, rate the tab!
1 2 3 4 5
comments
print report bad tab
2 comments total.
-1 reply
BreaktheWalls 146 Nov 18, 2009 03:02 AM

wrong...........................................

0 reply
Sabbath Black 30 Mar 23, 2013 05:28 PM

whats wrong with it

guest
You may want to rate the tab now too:
select rating
Wanna post a correction for this tab? Suggest correction