Oops, an error
Loading. Please wait.

Mine Are The Eyes Of God Tab

885 views 1 this week
no commentswrite comment
1 2 3 4 5
please rate
add to favorites
launch autoscroll
font size
0
reset
how to read this tab
guitar tuner
Autoscroll
slow
fast
+/-
esc
set tempo
stop
Help us to improve Ultimate-Guitar.com Take our survey!
×
Author
Andrew Zara 3,646
Band- Corrosion of Conformity
Song- Mine Are The Eyes Of God

TUNING: Tune 1 whole step down (D)

INTRO:
d |-------------------------------------------------------------------|
A |-------------------------------------------------------------------|
F |--9---10---9---8---9---10---12---10---9---8------------------------|
C |-------------------------------------------------------------------|
G |--7----8---7---6---7----8---10----8---7---6------------------------|
D |-------------------------------------------------------------------|
This is the quiet fading in part

RIFF A:
d |-------------------------------------------------------------------|
A |-------------------------------------------------------------------|
F |-------------------------------------------------------------------|
C |-----------------------------------7-------------------------------|
G |--7-------7---7-------7/8---8------5-----8\\7-----------------------|
D |--5--5-5--5---5--5-5--5/6---6---6--------6\\5-----------------------|

d |-------------------------------------------------------------------|
A |-------------------------------------------------------------------|
F |-------------------------------------------------------------------|
C |-----------------------------------7-------------------------------|
G |--7-------7---7-------7/8---8------5----8--------------------------|
D |--5--5-5--5---5--5-5--5/6---6---6-------6--------------------------|

d |-------------------------------------------------------------------|
A |-------------------------------------------------------------------|
F |-------------------------------------------------------------------|
C |-----------------------------------7-------------------------------|
G |--7-------7---7-------7/8---8------5----8--7--5--------------------|
D |--5--5-5--5---5--5-5--5/6---6---6-------6--5--3--------------------|

d |-------------------------------------------------------------------|
A |-------------------------------------------------------------------|
F |-------------------------------------------------------------------|
C |------------------------------------7------------------------------|
G |--7-------7---7-------7/8---8-------5----8\\7-----------------------|
D |--5--5-5--5---5--5-5--5/6---6---6--------6\\5-----------------------|

RIFF B:
Listen to the CD for the timing, these next riffs are pretty fast
d |-------------------------------------------------------------------|
A |-------------------------------------------------------------------|
F |-------------------------------------------------------------------|
C |-------------------------------------------------------------------|
G |--7-----------8-----------5-----------5-----------8--7-------------|
D |--5--5-5-5-5--6--6-6-6-6--3--3-3-3-3--3--3-3-3-3--6--5-------------|

d |-------------------------------------------------------------------|
A |-------------------------------------------------------------------|
F |-------------------------------------------------------------------|
C |-----------------------------------------------------------7\\------|
G |--7-----------8-----------5-----------5----------------------------|
D |--5--5-5-5-5--6--6-6-6-6--3--3-3-3-3--3--3-3-3-3-3-3-3-3-----------|

d |-------------------------------------------------------------------|
A |-------------------------------------------------------------------|
F |-------------------------------------------------------------------|
C |-------------------------------------------------------------------|
G |--7-----------8-----------5-----------5-----------8--7-------------|
D |--5--5-5-5-5--6--6-6-6-6--3--3-3-3-3--3--3-3-3-3--6--5-------------|

d |-------------------------------------------------------------------|
A |-------------------------------------------------------------------|
F |-------------------------------------------------------------------|
C |-------------------------------------------------------------------|
G |--7-----------8-----------5----------------------------------------|
D |--5--5-5-5-5--6--6-6-6-6--3--------/-6-\\-5-\\-0-/-5-\\-3-------------|

VERSE:
d |-------------------------------------------------------------------|
A |-------------------------------------------------------------------|
F |-------------------------------------------------------------------|
C |-------------------------------------------------------------------|
G |--2-2-2-2---5--2-2--2----------5--2-2--2----------5--2-2--5--7--8--|
D |--0-0-0-0---3--0-0--0-0-0-0-0--3--0-0--0-0-0-0-0--3--0-0--3--5--6--|

CHORUS:
RIFF A & RIFF B

INTERLUDE:
RIFF C:
d |-------------------------------------------------------------------|
A |-------------------------------------------------------------------|
F |-------------------------------------------------------------------|
C |-----------7---7----10---9----------7---7----10---9--10\\-----------|
G |--9---9----5---5-----8---7--9---9---5---5-----8---7---8\\-----------|
D |--7---7---------------------7---7----------------------------------| x2

RIFF D:
d |-------------------------------------------------------------------|
A |-------------------------------------------------------------------|
F |-------------------------------------------------------------------|
C |-------------------------------------------------------------------|
G |--2---2----5---5----8--7----2--2---5--5----8---7---8---------------|
D |--0---0----3---3----6--5----0--0---3--3----6---5---6---------------|

d |-------------------------------------------------------------------|
A |-------------------------------------------------------------------|
F |-------------------------------------------------------------------|
C |-----------7---7----10---9----------7---7----10---9--10\\-----------|
G |--9---9----5---5-----8---7--9---9---5---5-----8---7---8\\-----------|
D |--7---7---------------------7---7----------------------------------|

During the part, \"...I got to see it...got to believe it...\" play:
d |-------------------------------------------------------------------|
A |-------------------------------------------------------------------|
F |--12-\\-11----------------------------------------------------------|
C |--12-\\-11-------10\\9-----------7-----------------------------------|
G |--10-\\--9-------10\\9-----------5---8-------------------------------|
D |-----------------8\\7---7-7-7-------6-------------------------------| x4

Suggest correction
What's this?
You can suggest a correction to this tab. Community and Mods will review your correction and vote to approve or reject it.
comments
We did not receive enough feedback on this tab! Please rate:
print report bad tab
1 2 3 4 5
guest
You may want to rate the tab now too:
select rating
Please do not post tabs as comments. Select "correction" instead!