Oops, an error
Loading. Please wait.

Painted Smiling Faces Tab

700 views 3 this week
no commentswrite comment
1 2 3 4 5
please rate
add to favorites
launch autoscroll
font size
0
reset
how to read this tab
guitar tuner
Tab Pro tools
  • play this tab
  • loop segment
  • change instrument
  • show fretboard
  • metronome
×
Best way to learn
"Painted Smiling Faces"
Autoscroll
slow
fast
+/-
esc
set tempo
stop
Contributor
Band- Corrosion Of Conformity
Song- Painted Smiling Faces

TUNING: Tune 1 whole step down (D)

INTRO:
d |--------------------------------------------------------------------|
A |--------------------------------------------------------------------|
F |--------------------------------------------------------------------|
C |--------------------------------------------------------------------|
G |---------------7p6--5\3---------3-----------------------------------|
D |--3/5----5-----------------3---------5------------------------------|
                            Repeat several times, than play,

d |--------------------------------------------------------------------|
A |--------------------------------------------------------------------|
F |---------------------------------5----------------------------------|
C |---------------------------------5----------------------------------|
G |-----------3---------------------3----------------------------------|
D |---3---5------5---3---5----3--3-------------------------------------|

VERSE:
d |--------------------------------------------------------------------|
A |--------------------------------------------------------------------|
F |--------------------------------------------------------------------|
C |---5/7---7---7---7----x-x-x-x-x-x-x-x-------------------------------|
G |---5/7---7---7---7----x-x-x-x-x-x-x-x-------------------------------|
D |---3/5---5---5---5----x-x-x-x-x-x-x-x-------------------------------|

d |--------------------------------------------------------------------|
A |--------------------------------------------------------------------|
F |--------------------------------------------------------------------|
C |---5--/--7---7---7---7------x-x-x------8---7------------------------|
G |---5--/--7---7---7---7------x-x-x------8---7------------------------|
D |---3--/--5---5---5---5------x-x-x------6---5------------------------|

CHORUS:
d |--------------------------------------------------------------------|
A |--------------------------------------------------------------------|
F |--------------------------------------------------------------------|
C |--2-----------------------------------------------------------------|
G |--2---------5\3----------2------------------------------------------|
D |--0---0-0---3\1---0--0---0---0---3----------------------------------|

d |--------------------------------------------------------------------|
A |--------------------------------------------------------------------|
F |--------------------------------------------------------------------|
C |--2-----------------------------------------------------------------|
G |--2-----------5\3-------------7-------------------------------------|
D |--0----0-0----3\1---0--0---3-----3----------------------------------|

PRE 1ST SOLO:
Played right before 1st solo,
d |--------------------------------------------------------------------|
A |--------------------------------------------------------------------|
F |----------5-----x-x-x-----------------------------------------------|
C |---x-x----5-----x-x-x-------5----5----------------------------------|
G |---x-x----3-----x-x-x-------6----6----------------------------------|
D |---x-x--------------------------------------------------------------|

BEFORE/DURING 2ND SOLO:
This at the “...Yeah...” part and throughout the solo,
d |--------------------------------------------------------------------|
A |--------------------------------------------------------------------|
F |---------------------------5--5--5--5--5/8---8---8------------------|
C |---5/7--7---7----x-x-x-x---5--5--5--5--5/8---8---8------------------|
G |---5/7--7---7----x-x-x-x---3--3--3--3--3/6---6---6------------------|
D |---3/5--5---5----x-x-x-x--------------------------------------------|

d |--------------------------------------------------------------------|
A |--------------------------------------------------------------------|
F |----x-x-x----7---x---5----------------------------------------------|
C |----x-x-x----7---x---5----------------------------------------------|
G |----x-x-x----5---x---3----------------------------------------------|
D |--------------------------------------------------------------------|

AFTER SOLO:
d |--------------------------------------------------------------------|
A |--------------------------------------------------------------------|
F |-----------------------------------------------5--------------------|
C |---5/7--7---7---7-----------------5/7----------5--5--5/7------------|
G |---5/7--7---7---7-----------------5/7----------3--5--5/7------------|
D |---3/5--5---5---5----0-0-0-0-0-0--3/5--5-5-5------3--3/5------------|
comments
We did not receive enough feedback on this tab! Please rate:
print report bad tab
1 2 3 4 5
I want to post or [tab]
guest
You may want to rate the tab now too:
select rating
Please do not post tabs as comments. Select "correction" instead!