Oops, an error
Loading. Please wait.

Redemption City Tab

1,679 views 6 this week
no commentswrite comment
1 2 3 4 5
please rate
add to favorites
launch autoscroll
font size
0
reset
how to read this tab
guitar tuner
Autoscroll
slow
fast
+/-
esc
set tempo
stop
Help us to improve Ultimate-Guitar.com Take our survey!
×
Contributor
-----------------------------------------------------------------------------
                 Redemption City - Corrosion of Conformity
-----------------------------------------------------------------------------
Tabbed By: Sabbath Black
E-mail: thenumberofthebeast0@gmail.com

Tuning: Standard

This is my first tab so please excuse any mistakes I may make in my tab.
I noticed the other day that this was not in the database so I decided
to give it a try. I could not figure out Guitar 1, sorry. I hope you enjoy.

                           (Guitar 2)  Riff 1
e|--------------------------------------------------------------------------|
B|--------------------------------------------------------------------------|
G|--------------------------------------------------------------------------|
D|-4/6-6--0-4-4/6-6-xx------------------------------------------------------|
A|-2/4-4--0-2-2/4-4-xx--4/6-6--0-4-4/6-6-xx---------------------------------|
E|----------------------2/4-4--0-2-2/4-4-xx---------------------------------|
                         Repeat six times


                          (Guitar 2) Chorus
e|--------------------------------------------------------------------------|
B|--------------------------------------------------------------------------|
G|--------------------------------------------------------------------------|
D|--------------------------------------------------------------------------|
A|--7s-----------6s---------------------------------------------------------|
E|--5s-----------4s---------------------------------------------------------|

Play riff 1 another six times. Go back to chorus afterward. Play Riff 1 another
 two times and then go to Riff 2.

                              (Both Guitars) Riff 2

e|--------------------------------------------------------------------------|
B|--------------------------------------------------------------------------|
G|--------------------------------------------------------------------------|
D|-4/6-6---6-6\4------------------------------------------------------------|
A|-2/4-4---4-4\2---/4-4\6--6\4--7/8-6-4-------------------------------------|
E|-----------------/2-2\4--4\2--5/6-4-2-------------------------------------|
Play once an then go to solo.

                             Solo
e|---------------------------------------------------------------------------------|
B|---------------------------------------------------------------------------------|
G|-------------------------------------12brb--15141211-----------------------------|
D|-10brb---------10-12-10-----------------------------15-12brb---------------------|
A|-12brb---10-12----------12-10-9brb---------------------------7-9br--8br-9h10p9---|
E|---------------------------------------------------------------------------------|

e|--------------------------------------------------------------------------|
B|--------------------------------------------------------------------------|
G|--------12-11-10-9s-------------------------------------------------------|
D|--------------------------------------------------------------------------|
A|-9/8-7--------------------------------------------------------------------|
E|--------------------------------------------------------------------------|

After about 16 seconds start riff 1 again. Repeat four times then go to chorus. Repeat 
riff 1 three more times and you have finished the song.

************************************

| /   slide up
| \   slide down
| x   Mute note
| s   sustain note
| br  Bend release
| brb Bend release bend
| h   Hammer on
| p   Pull off

************************************
comments
We did not receive enough feedback on this tab! Please rate:
print report bad tab
1 2 3 4 5
I want to post or [tab]
guest
You may want to rate the tab now too:
select rating
Please do not post tabs as comments. Select "correction" instead!