Oops, an error
Loading. Please wait.

Vote With A Bullet Tab

version 2
version 2

Whole song

Interactive

4,847 views 9 this week
no commentswrite comment
1 2 3 4 5
excellent!
x 2
add to favorites
launch autoscroll
font size
0
reset
how to read this tab
guitar tuner
Tab Pro tools
  • play this tab
  • loop segment
  • change instrument
  • show fretboard
  • metronome
Autoscroll
slow
fast
+/-
esc
set tempo
stop
Contributor
Band:  Corrosion Of Conformity
Album: Blind
Song:  Vote With A Bullet

Copyright (c)  (Roadrunner) (1991)
Version 1.0 - (22/03/05)

Transcribed By: Steve
Email:          stephen.elvidge1@ntlworld.com


.  - palm mute           /  - slide up to
\  - slide down to       ~  - vibrato
h  - hammer on           b  - Bend
p  - pull off            Suffixes for bend
t  - tap                 f  - full bend    h - half bend
ph - pinched harmonic    q  - quarter bend t - tap bend
*  - see comment         ^  - Hold bend    r release bend
x  - Stuccatto           ~  - vibrato bend
,  - slight palm mute    () - ghost note, sustained note
"  - tremolo note        <> - Trill

Tunning C G C F A D
 

 Intro

                                  Pick Scrape
                PM Feedback       ~~~~~~PM                        PM
E-------------------------------------------------------------------|
B-------------------------------------------------------------------|
G-------------------------------------------------2-----------------|
D----------------------------------\-------7\-----2-----------------|
A-0-0-3----3----00--------0-0-3----\----00-7\---3-0-3-0-3----3------|
E-0-0-3----3----00--------0-0-3----3----00--\---3---3-0-3----3----00|

                PM
E----------------------|
B----------------------|
G----------------------|
D----------------------|
A-0-0-3----3----00-----|
E-0-0-3----3----00-----| Rpt 4 X


 Main Riff A
 [PM]      [PM]    [PM]
E------------------------------------|
B------------------------------------|
G------------------------------------|
D------------------------------------|
A-0-0-3p0--0-0-3p0--0-0-3p0-3p0-3p0--|
E-0-0-3p0--0-0-3p0--0-0-3p0-3p0-3p0--|

  Guitar 1
  [PM]      [PM]    [PM]
E[------------------------------------|
B[------------------------------------|
G[------------------------------------|
D[------------------------------------|
A[-0-0-3p0--0-0-3p0--0-0-3p0-3p0-3p0--|
E[-0-0-3p0--0-0-3p0--0-0-3p0-3p0-3p0--|
 [
 [Guitar 2
 [[PM]      [PM]    [PM]
E[------------------------------------|
B[------------------------------------|
G[------------------------------------|
D[------------------------------------|
A[-0-0------0-0------0-0-3p0-3p0-3p0--|
E[-0-0------0-0------0-0-3p0-3p0-3p0--|

 Rpt Main Riff A

 Main Riff B
 [PM]      [PM]    [PM]      ~~~~~~
E------------------------------------|
B------------------------------------|
G------------------------------------|
D------------------------------------|
A-0-0-3p0--0-0-3p0--0-0-3p0----------|
E-0-0-3p0--0-0-3p0--0-0-3p0-3--------|

 Verse structure Riff A, Riff B, Riff A, Riff B.

 Chorus

E-------------------------------------------------------|
B-------------------------------------------------------|
G-------------------------------------------------------|
D-------------------------------------------------------|
A---5----------------------------5----------------------|
E-0---6-5-0-5-3-0-3-5-6-5-3-5--0---6-5-0-5-3-0-0-0-5-3--|
                                                   ~~~~~
E-------------------------------------------------------|
B-------------------------------------------------------|
G-------------------------------------------------------|
D-------------------------------------------------------|
A---5----------------------------5-----------------3----|
E-0---6-5-0-5-3-0-3-5-6-5-3-5--0---6-5-0-5-3-0-0-0-3----|

 Rpt Main Riff A once
 Rpt Main Riff B once
 Rpt Verse
 Rpt Chorus
 Rpt Main Riff A once
 Rpt Main Riff B once
 Rpt Verse
 Rpt Chorus

 Backing for solo is Main Riff
 
  Guitar 1
                                   [-PM-]~~ [-PM-] ~~      ~~~
E[-------------------------------------------------------------|
B[-------------------------------------------------------------|
G[-------------------------------------------------------------|
D[-------------------------------------------------------------|
A[-6\5-0-6\5-0-3-0-5\3-0-5\3-0-3-0-0-000-3-0-0-000-3-6\5-0-3---|
E[-6\5-0-6\5-0-3-0-5\3-0-5\3-0-3-0-0-000-3-0-0-000-3-6\5-0-3---|
 [
 [Guitar 2
 [                                  [-PM-]~~ [-PM-] ~~      ~~~
E[-------------------------------------------------------------|
B[-------------------------------------------------------------|
G[-------------------------------------------------------------|
D[-------------------------------------------------------------|
A[------------------------------6\-0-000-3-0-0-000-3-6\5-0-3---|
E[------------------------------6\-0-000-3-0-0-000-3-6\5-0-3---|Rpt

 Both guitars together.
                                   [-PM-]~~ [-PM-] ~~      ~~~
E-------------------------------------------------------------|
B-------------------------------------------------------------|
G-------------------------------------------------------------|
D-------------------------------------------------------------|
A-6\5-0-6\5-0-3-0-5\3-0-5\3-0-3-0-0-000-3-0-0-000-3-6\5-0-3---|
E-6\5-0-6\5-0-3-0-5\3-0-5\3-0-3-0-0-000-3-0-0-000-3-6\5-0-3---|

 Rpt 2 X
 


 End by playing the main riff A once




END
comments
We did not receive enough feedback on this tab! Please rate:
print report bad tab
1 2 3 4 5
I want to post or [tab]
guest
You may want to rate the tab now too:
select rating
Please do not post tabs as comments. Select "correction" instead!