Oops, an error
Loading. Please wait.

Wishbone Some Tomorrow Tab

863 views 1 this week
no commentswrite comment
1 2 3 4 5
please rate
add to favorites
launch autoscroll
font size
0
reset
how to read this tab
guitar tuner
Tab Pro tools
  • play this tab
  • loop segment
  • change instrument
  • show fretboard
  • metronome
Autoscroll
slow
fast
+/-
esc
set tempo
stop
Contributor
Band- Corrosion of Conformity
Song- Wishbone Some Tomorrow

TUNING: Tune 1 whole step down (D)

INTRO:
d |-------------------------------------------|
A |-------------------------------------------|
F |-------------------------------------------|
C |-7--7------------------------------3h5p3p0-|
G |-5--5--3--5-5-5--3--5-5-5--3-5-5p3---------|
D |-------------------------------------------| x3
    [PM]

d |-------------------------------------------|
A |-------------------------------------------|
F |---------------------5--5------------------|
C |--7--7---------------5--5---5--5---5\3-----|
G |--5--5--5b--3-3-5-X--3--3---5--5---5\3-----|
D |----------------------------3--3---3\1-----|
     [PM]

VERSE:
d |-------------------------------------------|
A |-------------------------------------------|
F |-------------------------------------------|
C |-7--7------------------------------3h5p3p0-|
G |-5--5--3--5-5-5--3--5-5-5--3-5-5p3---------|
D |-------------------------------------------|
    [PM]

d |-------------------------------------------|
A |-------------------------------------------|
F |---------------------5---------------------|
C |-7--7----------------5-------5--5-5-3------|
G |-5--5--3--5-5-5--3h5-3---3h5-5--5-5-3------|
D |-----------------------------3--3-3-1------| Repeat

d |-------------------------------------------|
A |-------------------------------------------|
F |-------------------------------------------|
C |-7--7------------------------------3h5p3p0-|
G |-5--5--3--5-5-5--3--5-5-5--3-5-5p3---------|
D |-------------------------------------------|
    [PM]

d |-------------------------------------------|
A |-------------------------------------------|
F |--------------------5--5--10--10--10-------|
C |--7--7--------------5--5--10--10--10-------|
G |--5--5--3--5-5-5--3-3--3--8---8---8--------|
D |-------------------------------------------|
     [PM]

1st CHORUS/3rd CHORUS:
d |-------------------------------------------|
A |-------------------------------------------|
F |--------------------5--5--10--10--10-------|
C |--7--7--------------5--5--10--10--10-------|
G |--5--5--3--5-5-5--3-3--3--8---8---8--------|
D |-------------------------------------------|
     [PM]

d |-------------------------------------------------|
A |-------------------------------------------------|
F |-------------------------------------------------|
C |-7---------7----------10------------10-----------|
G |-5---5-5-5-5---5-5-5--8----8--8--8--8----8--8--8-|
D |-------------------------------------------------|
        [PM-]     [PM-]       [PM---]       [PM---]

2nd CHORUS:
d |-------------------------------------------|
A |-------------------------------------------|
F |----------------------5-------10--10--10---|
C |--7--7----------------5-------10--10--10---|
G |--5--5--3--5-5-5--3h5-3---3h5-8---8---8----|
D |-------------------------------------------|
     [PM]

d |-------------------------------------------------|
A |-------------------------------------------------|
F |-------------------------------------------------|
C |-7---------7----------10------------10-----------|
G |-5---5-5-5-5---5-5-5--8----8--8--8--8----8--8--8-|
D |-------------------------------------------------|
        [PM-]     [PM-]       [PM---]       [PM---]

d |-------------------------------------------|
A |-------------------------------------------|
F |-------------------5--7--------------------|
C |-10----10----3--5--5--7--------------------|
G |-10----10----3--5--3--5--------------------|
D |-8-----8-----1--3--------------------------|

PRE-SOLO:
d |-------------------------------------------|
A |-------------------------------------------|
F |-------------------------------------------|
C |-7--7-7--10--12----------------------------|
G |-5--5-5--8---10--8h10-8h10-8h10-8h10-------|
D |-5--5-5--8---10----------------------------|

d |-------------------------------------------|
A |-------------------------------------------|
F |-------------------------------------------|
C |-7--7-7--10--12-----------------10-7-------|
G |-5--5-5--8---10--8h10-8h10-8h10------------|
D |-5--5-5--8---10----------------------------| Repeat

d |-------------------------------------------|
A |-------------------------------------------|
F |-10----------------------------------------|
C |---------------10-10-10--------------------|
G |---------------8--8--8---------------------|
D |-------------------------------------------|
    [LET RING~~~~~~~~~~~~~~~~~~~~~~~~~~~~~~~~]
comments
We did not receive enough feedback on this tab! Please rate:
print report bad tab
1 2 3 4 5
I want to post or [tab]
guest
You may want to rate the tab now too:
select rating
Please do not post tabs as comments. Select "correction" instead!