Oops, an error
Loading. Please wait.

Larnia tab

28 views 1 this week
no commentswrite comment
1 2 3 4 5
3 more votes to show rating
add to favorites
×
Save as Personal and add changes to this tab that will be seen only by you. Learn more ›
×
You can save this tab as Personal to edit and correct it or add notes. All changes will be seen only by you. Learn more »
launch autoscroll
font size
0
reset
how to read this tab
guitar tuner
edit
Autoscroll
slow
fast
+/-
esc
set tempo
stop
Author
Difficulty
Take this tab as a starting point. Any suggestion or correction is appreciated!


[Intro 1]

 With delay, as if every note was played twice

e|--7---------------|------7-----------|------------------|------------------| 2x
B|----------9-------|----------9-------|--7-------5-------|--4-------0-------|
G|------------------|------------------|------------------|------------------|
D|------------------|------------------|------------------|------------------|
A|------------------|------------------|------------------|------------------|
E|------------------|------------------|------------------|------------------|


[Intro 2]

With delay

e|--7---------------|------7-----------|------------------|------------------|
B|----------9-------|----------9-------|--7-------5-------|--4-------0-------|
G|------------------|------------------|------------------|------------------|
D|------------------|------------------|------------------|------------------|
A|------------------|------------------|------------------|------------------|
E|------------------|------------------|------------------|------------------|


e|--7---------------|------7-----------|------------------|------------------|
B|----------9-------|----------9-------|--7-------5-------|--4-------0-------|
G|------------------|------------------|------------------|------------------|
D|------------------|------------------|------------------|------------------|
A|------------------|------------------|------------------|------------------|
E|------------------|------------------|------------------|------------------|


e|--7---------------|------11----------|------------------|------------------|  
B|----------9-------|------9-----------|--7-------5-------|--4-------9-------|
G|------------------|------------------|------------------|------------------|
D|------------------|------------------|------------------|------------------|
A|------------------|------------------|------------------|------------------|
E|------------------|------------------|------------------|------------------|

e|--7---------------|------7-----------|------------------|------------------|  
B|----------9-------|----------9-------|--7-------5-------|--4-------0-------|
G|------------------|------------------|------------------|------------------|
D|------------------|------------------|------------------|------------------|
A|------------------|------------------|------------------|------------------|
E|------------------|------------------|------------------|------------------|
                                                           la mia condi_


[Verse]

e|------------------------------------------------------------------------------|
B|------------------------------------------------------------------------------|
G|---6---------6\4---------------4/6----------6\4------------4/6-------6\4------|
D|------------------------------------------------------------------------------|
A|------------------------------------------------------------------------------|
E|------------------------------------------------------------------------------|
   _zione è pessima mi trovo da solo a combatterla i cabarettisti domenica


e|---------------------------------------------------------------------------|
B|---------------------------------------------------------------------------|
G|---------------4/6--------------6\4---------6-6-6-6-6-6-6-6-9-9-9-9-9-9-9--|
D|---------------------------------------------------------------------------|
A|---------------------------------------------------------------------------|
E|---------------------------------------------------------------------------|
    ci svuotano casa ma è colpa nostra e non ci siamo persi niente finora


[Intro 2]


[Verse 2] 

(same as verse 1) 

Mi sembra che tutti si scordino dell'ultima volta che ci successe,
sembravano bene intenzionati e invece, ma non vi siete persi niente finora


[Chorus]

Ab5           F#5           Ab5
   Ma il desiderio qui non c'è

            F#5            Ab5
   di andare oltre alle cadute

             F#5           Ab5
   per colpa nostra è debole 

              F#5
   come il nemico


[Intro 2]


[Verse 3]

Che ...?... io non lo so, decidete a chi vada il merito
non è necessario convincervi, mi siedo sul fiume ed aspetto


[Chorus] (x2)


[Intro 2]


[Outro]

Play this a few times

Figure out the timing by yourself

e|---------------------|--------------------|--------------------|--------------------|-----------|
B|---0--------4--5--4--|--0--------4--5--4--|--0--------4--5--4--|--2--------4--5--4--|--0--------|
G|---------------------|--------------------|--------------------|--------------------|-----------|
D|---------------------|--------------------|--------------------|--------------------|-----------|
A|---------------------|--------------------|--------------------|--------------------|-----------|
E|---------------------|--------------------|--------------------|--------------------|-----------|

End with noise


************************************

 /   Slide up
 \   Slide down

************************************
Suggest correction
Creating personal tab
Creating personal tab
You can edit any tab online and save it as your Personal.

You can edit, replace or remove any tab part or add personal notes – all changes will be seen only by you.

Personal tabs can be accessed anytime from any device, even offline.
Learn more »
Give kudos to tab author, rate the tab!
1 2 3 4 5
comments
print report bad tab
guest
You may want to rate the tab now too:
select rating
Wanna post a correction for this tab? Suggest correction