Oops, an error
Loading. Please wait.

Partial Albino Friend Tab

34 views 1 this week
no commentswrite comment
1 2 3 4 5
please rate
add to favorites
launch autoscroll
font size
0
reset
how to read this tab
guitar tuner
Autoscroll
slow
fast
+/-
esc
set tempo
stop
Help us to improve Ultimate-Guitar.com Take our survey!
×
Author
elsocho 66
-------------------------------------------------------------------------------
        PARTIAL ALBINO FRIEND - Cosmic Granola
-------------------------------------------------------------------------------
Tabbed by:kuper


Tuning:EADGBE

At some parts in the song there is reverb/delay.

Intro/Verse:
                                                  x4 for intro, 6 for verse
e|-------3---------3---------------7--------7---7---------------------------|
B|-------3---------3---------------7--------7---7---------------------------|
G|-------4---------4---------------8--------8---8---------------------------|
D|-------5---------5---------------9--------9---9---------------------------|
A|-------5---------5---------------9--------9---9---------------------------|
E|-3--3--3-----3---3----/7--7--7---7----7---7-------------------------------|
   .  .        .            .  .        .

Fill:
e|--------------------------------------------------------------------------|
B|--------10/5--------------------------------------------------------------|
G|--7h9---------------------------------------------------------------------|
D|--------------------------------------------------------------------------|
A|--------------------------------------------------------------------------|
E|--------------------------------------------------------------------------|

Chorus:
e|----------3---3---------3----------------7--7-------7----------8-------8--|
B|----------3---3---------3----------------7--7-------7----------8-------8--|
G|----------4---4---------4----------------8--8-------8----------9-------9--|
D|----------5---5---------5----------------9--9-------9---------10------10--|
A|----------5---5---------5----------------9--9-------9---------10------10--|
E|----3--3--3---3---3--3--3-----/7--7--7---7--7----7--7-----8-8--8---8---8--|

e|---------5---5--------5--------------5--------------------------------------|
B|---------5---5--------5--------------5--------------------------------------|
G|---------6---6--------6--------------6--------------------------------------|
D|---------7---7--------7---x2---------7--------------------------------------|
A|---------7---7--------7--------------7--------------------------------------|
E|---5--5--5---5----5---5--------------5--------------------------------------|

2nd Chorus:
Starts the same as 1st chorus then it goes
e|--------------------------------------------------------------------------|
B|--------------------------------------------------------------------------|
G|--------------------------------------------------------------------------|
D|--5--5--5--5--5--5--5--5---4--4--4--4--4--4--4--4---9--9--9--9--9--9--9---|
A|--5--5--5--5--5--5--5--5---4--4--4--4--4--4--4--4---9--9--9--9--9--9--9---|
E|--3--3--3--3--3--3--3--3---2--2--2--2--2--2--2--2---7--7--7--7--7--7--7---|
The part after this is the same pattern but with full barre chords

e|---------------------------------------------------------------------------|
B|---------------------------------------------------------------------------|
G|---------------------------------------------------------------------------|
D|--7--7--7--7--7--7--7--7---------------------------------------------------|
A|--7--7--7--7--7--7--7--7---------------------------------------------------|
E|--5--5--5--5--5--5--5--5---------------------------------------------------|

============================================================================

| /  slide up
| \  slide down
| h  hammer-on
| p  pull-off
| ~  vibrato
| +  harmonic
| x  Mute note
| .  Palm mute
============================================================================
www.cosmicgranola.com
Suggest correction
What's this?
You can suggest a correction to this tab. Community and Mods will review your correction and vote to approve or reject it.
comments
We did not receive enough feedback on this tab! Please rate:
print report bad tab
1 2 3 4 5
guest
You may want to rate the tab now too:
select rating
Please do not post tabs as comments. Select "correction" instead!