Oops, an error
Loading. Please wait.

Dead In A Ditch tab

490 views 3 this week
no commentswrite comment
1 2 3 4 5
2 more votes to show rating
add to favorites
×
Save as Personal and add changes to this tab that will be seen only by you. Learn more ›
×
You can save this tab as Personal to edit and correct it or add notes. All changes will be seen only by you. Learn more »
launch autoscroll
font size
0
reset
how to read this tab
guitar tuner
edit
Autoscroll
slow
fast
+/-
esc
set tempo
stop
Author
Difficulty
-------------------------------------------------------------------------------
                           DEAD IN A DITCH - Cosmic Psychos
-------------------------------------------------------------------------------
Tabbed by: James Kent
E-mail: jawask@hotmail.com
Cosmic Psychos: https://www.facebook.com/cosmicpsychos

Tuning: Standard
Approx 168 b.p.m. 4/4

Listen to recording for timing
Chord:  (eBDGAE)
B       (777997)
D       (557755)
G       (333553)
A       (555775)
N.C.    No Chord


Intro:
B         D    G    A

B     E   D     A D A  (x4)

B              A    E  (x2)


Verse 1:
B
Try to shove my hands, yeah well give it a miss
       A                          E
when I cover you over I'll be takin' a piss.
B
You should be afraid yeah Son of a bitch
N.C.
next time I see ya You'll be dead in a ditch!


Chorus(1):
B         D    G    A  (x2)

B                D   
Dead in a ditch! I got ya got ya got ya
G                A
Dead in a ditch! I got ya got ya got ya
B                D
Dead in a ditch! I got ya got ya got ya
G                A
Dead in a ditch! I got ya got ya got ya...

B     E     D   A D A  (x4)

B              A    E  (x2)


Verse 2:
    B
You extended your hand, I extended my fist
          A                      E
As far as invites go, you'll be last on the list.
B
You should be afraid yeah son of a bitch
    A                             E
The next time I see ya you'll be dead in a ditch!


Chorus(2):
B      D   G        A  (x2)

B                D   
Dead in a ditch! I got ya got ya got ya
G                A
Dead in a ditch! I got ya got ya got ya
B                D
Dead in a ditch! I got ya got ya got ya
G                A
Dead in a ditch! I got ya got ya got ya...

B     E     D   A D A  (x4)


Solo:   
rhythm guitar plays this while lead plays solo:
B              A    E  (x4)
B       D   G       A  (x2)

Lead guitar (best performed on guitar with whammy bar (indicated by "~")):
e |-------------------------------------------------------------------------------|
B |--12~--------------------------------------------------------------------------|
G |--11~------12--12--11--9-----------------------------9--11------9--11----------|
D |--------------------------12--11--9-12-9---------12----------9-----------------|
A |-------------------------------------------------------------------------------|
E |-------------------------------------------------------------------------------|

e |-------------------------------------------------------------------------------|
B |-------------------------------------------------------------------------------|
G |-----9--11----12-11-9--------------------------------------------9/-11---------|
D |--9-------------------12-11-9----9---------12~--9-9---9--12--9-9---------------|
A |------------------------------12-----------------------------------------------|
E |-------------------------------------------------------------------------------|

e |-------------------------------------------------------------------------------|
B |-------------------------------------------------------------------------------|
G |-------------------------9/-11-------------------------------9/-11-------------|
D |--12~--9-9---9--12--9-9---------------12~--9-9---9--12--9-9--------------------|
A |-------------------------------------------------------------------------------|
E |-------------------------------------------------------------------------------|

e |-------------------------------------------------------------------------------|
B |-15----15----15---15----17----17----17----17-----19~~~~------------------------|
G |----16----16---16----16----16----16----16----16----------12-11~-9--------------|
D |------------------------------------------------------------------12-11-9----9-|
A |--------------------------------------------------------------------------12---|
E |-------------------------------------------------------------------------------|

e |-------------------------------------------------------------------------------|
B |-------------------------------------------------------------------------------|
G |-------------------------9/-11-------------------------------9/-11-------------|
D |--12~--9-9---9--12--9-9---------------12~--9-9---9--12--9-9--------------------|
A |-------------------------------------------------------------------------------|
E |-------------------------------------------------------------------------------|


Chorus(3):
N.C.                
Dead in a ditch! I got ya got ya got ya
                 
Dead in a ditch! I got ya got ya got ya
                 
Dead in a ditch! I got ya got ya got ya
                A
Dead in a ditch!

B                D   
Dead in a ditch! I got ya got ya got ya
G                A
Dead in a ditch! I got ya got ya got ya
B                D
Dead in a ditch! I got ya got ya got ya
G                A
Dead in a ditch! I got ya got ya got ya...

B        D   G      A  (x2)


Outro:
B                   D
(Get a shovel...)
       G            A 
(Get a pick...)
B                   D
(Get a shovel...)
       G            A 
(Get a  spade...)

B       D   G       A  (x4)

B

-----------------------------------------------------------
Have fun - All you need is your guitar, amp and a VB!

            
            
Suggest correction
Creating personal tab
Creating personal tab
You can edit any tab online and save it as your Personal.

You can edit, replace or remove any tab part or add personal notes – all changes will be seen only by you.

Personal tabs can be accessed anytime from any device, even offline.
Learn more »
Give kudos to tab author, rate the tab!
1 2 3 4 5
comments
print report bad tab
guest
You may want to rate the tab now too:
select rating
Wanna post a correction for this tab? Suggest correction