Oops, an error
Loading. Please wait.

Daves House Bass Tab

851 views 6 this week
no commentswrite comment
1 2 3 4 5
please rate
add to favorites
launch autoscroll
font size
0
reset
guitar tuner
Autoscroll
slow
fast
+/-
esc
set tempo
stop
Help us to improve Ultimate-Guitar.com Take our survey!
×
Author
Difficulty
advanced
-------------------------------------------------------------------------------
		                             Dave's House - Cosmo Jarvis
-------------------------------------------------------------------------------

This took me an absolute age because of the amount of fills in the song.
Managed to get them all I think. Have fun playing this funky number.
Comments and ratings welcome!

Tabbed By : Ghefly
e-mail:

Tuning:

G|---------------------16/7-15------------------------------|
D|--10--11--12--12------------------------------------------|
A|----------------------------------------------------------|
E|-8---9---10-----------------------------------------------|

G|------------------------------------------------------------|
D|--10--11--12--12--------------------------------------------|
A|------------------------------------------------------------|
E|-8---9---10----------6--------------------------------------|

G|---------------------12-10----10--------------------------|
D|--10--11--12--12-----------12-------10-12-----------------|
A|---------------------------------12-------10--------------|
E|-8---9---10-----------------------------------6-----------|


G|---------------------14p12----12h14---------12---10/12----|
D|--10--11--12--12-----------15-------12--------------------|
A|----------------------------------------10-------8//10----|
E|-8---9---10--------------------------------------------6--|

G|----------------------------------------------------------|
D|--10--11--12--12-10-12------------------------------------|
A|----------------------------------------------------------|
E|-8---9---10-------------x5-4-3----------------------------|

G|----------------------------------------------------------|
D|--10--11--12--12-10-12/15-------8-------------------------|
A|----------------------------------------------------------|
E|-8---9---10---------------8-7-6---------------------------|

G|------------------14p12---15------------------------------|
D|--10--11--12--12--12------15------------------------------|
A|-----------------------10---------------------------------|
E|-8---9---10-----------------------------------------------|

G|-------------------------14p12-12p10----------------------|
D|--10--11--12--12--12-10--12----10-------------------------|
A|----------------------------------------------------------|
E|-8---9---10--------------------------6--------------------|

G|----------------------------------------------------------|
D|--10--11--12--12-10-12---------5--------------------------|
A|----------------------------------------------------------|
E|-8---9---10-------------x5-4-3----------------------------|

G|----------------------------------------------------------|
D|--10--11--12--12-12/15----12-14-15--------8---------------|
A|-----------------------12---------------------------------|
E|-8---9---10------------------------x8-7-6-----------------|

Chorus

G|----------------------------------------------------------|
D|--10--11--12--12-12-10-------5-3-5------------------------|
A|-----------------------------------3----------------------|
E|-8---9---10------------5-4-3------------------------------|

G|----------------------------------------------------------|
D|--10--11--12--12-10-12/15-------8-7-8---------------------|
A|--------------------------------------8-------------------|
E|-8---9---10---------------8-7-6---------------------------|

Guitar interlude:

G|----------------------------------------------------------|
D|-----------------------x7-6-5-----------------------------|
A|----------8-----------------------------------------------|
E|-8-9-10-8---10---5-4-3------------------------------------|


2nd verse

G|----------------------15----15----14----15----------------|
D|--10--11--12--12------------------------------------------|
A|----------------------13----13----12----13----------------|
E|-8---9---10-------6---------------------------------------|

G|------------------14//17\\14------------------------------|
D|--10--11--12--12--12//15\\12----8-------------------------|
A|----------------------------------------------------------|
E|-8---9---10------------------6----------------------------|


G|----------------------------------------------------------|
D|--10--11--12--12-12-10-------5-3-5------------------------|
A|-----------------------------------3----------------------|
E|-8---9---10------------5-4-3------------------------------|

G|----------------------------------------------------------|
D|--10--11--12--12-12-10-12/15--------5-3-5-----------------|
A|------------------------------------------3---------------|
E|-8---9---10------------------5-4-3------------------------|

most of the verse is the above two riffs, with the below riff played sometimes too.

G|----------------------------------------------------------|
D|-12-12-10-12/15-15-14-12----------------------------------|
A|----------------------------------------------------------|
E|----------------------------------------------------------|

2nd chorus is the same, as is the 2nd interlude.

Bass break:

G|----------------------------------------------------------|
D|--10--11--12--12-12-10-12------------5-5-3-5--------------|
A|--------------------------12-----------------3------------|
E|-8---9---10--------------------5-4-3----------------------|

G|----------------------------------------------------------|
D|--10--11--12-12-10-12/15-------8-8-7-8--------------------|
A|---------------------------------------8------------------|
E|-8---9---10--------------8-7-6----------------------------|

Outro:


G|----------------------------------------------------------|
D|-----------------------x7-6-5-----------------------------|
A|----------8-----------------------------------------------|
E|-8-9-10-8---10---5-4-3------------------------------------|

G|----------------------------------------------------------|
D|-----------------------x10-9-8----------------------------|
A|----------8-----------------------------------------------|
E|-8-9-10-8---10---8-7-6------------------------------------|

End on:

G|----------------------------------------------------------|
D|--10--11--12-12-10-12--10--11--12-12-10-12----------------|
A|----------------------------------------------------------|
E|-8---9---10-----------8---9---10--------------------------|



| /  slide up
| \  slide down
| h  hammer-on
| p  pull-off
| ~  vibrato
| +  harmonic
| x  Mute note
===============================================================================
Suggest correction
What's this?
You can suggest a correction to this tab. Community and Mods will review your correction and vote to approve or reject it.
comments
We did not receive enough feedback on this tab! Please rate:
print report bad tab
1 2 3 4 5
guest
You may want to rate the tab now too:
select rating
Please do not post tabs as comments. Select "correction" instead!