Oops, an error
Loading. Please wait.

Gay Pirates Bass Tab

1,583 views 1 this week
2 commentsread comments
1 2 3 4 5
please rate
add to favorites
launch autoscroll
font size
0
reset
guitar tuner
Autoscroll
slow
fast
+/-
esc
set tempo
stop
Help us to improve Ultimate-Guitar.com Take our survey!
×
Contributor
Difficulty
novice
Gay Pirates

Based on Neil Killer’s chords (thank you Neil).

I’ve simplified this considerably as I was in a rush and I'm not a particularly 
accomplished player! ! look forward to others taking this forward.

 
VERSE 1: NO BASS
G
This water is too salty
    G
For me to even drink
    G
I'd rather walk the dreaded plank
     G
Than stay another week
         C
But it's you, my love
D                G
You're my land, ahoy!

        G
And I'm sick of being beaten
    G
And whipped and lashed to death
  G
I want one night with no gang rape
    G
But I won't hold my breath
         C
But it's you, my love
D                G
You're my land, ahoy!
              D
And you're my boy

CHORUS:
G|----------------|----------------|
D|--------------2-|----------------|
A|-----------22---|22-55---2-------|
E|3-3-----33------|------3---5-2-3-|

G
Yo ho, Sebastian!
G        Bm   Em
Let's go far away
Bm                  D                G
Somewhere where the captain won't be mad
G
Yo ho, Sebastian!
  G     Bm       Em
I wanna love you good
    Bm              D                 G
And we deserve much better than we've had

VERSE 2: NO BASS
     G
They say they're gonna kill me
     G
If I look at you once more
     G
They spinned my hammock yesterday
   C          D      G
So I'll sleep on the floor
         C
I'd be under the sea
D                G    (Cmaj7)
But you hold me above

         G                       (Bm)
And they put glass in my sandals
      G                        (Bm)
So my feet would bleed all day
    G                        (Bm)
And they forced me to wear them
        C           D        G
Or they said they'd make you pay
       C
I'd be under the sea
D                G
But you hold me above
                 D7
You're the man I love!

CHORUS:
G|----------------|----------------|
D|--------------2-|----------------|
A|-----------22---|22-55---2-------|
E|3-3-----33------|------3---5-2-3-|

G
Yo ho, Sebastian!
G        Bm   Em
Let's go far away
Bm                  D                G
Somewhere where the captain won't be mad
G
Yo ho, Sebastian!
  G     Bm       Em
I wanna love you good
    Bm              D                 G
And we deserve much better than we've had

VERSE 3:
G|-------------|----------------|x2
D|-------------|5---------------|
A|--0-2-0-2-0--|--5---2-0-------|
E|3-----------3|----------3-----|

    G
The captain found about us
    G
And ordered them to throw
G
Us both overboard tonight
  C      D       G
Together we will go

G|-------------|----------------|
D|--0-2-0-2-0--|0-2-4-2-4-2-0---|
A|3-----------3|----------------|
E|-------------|----------------|

G|-------------|----------------|
D|-------------|5---------------|
A|--0-2-0-2-0--|--5---2-0-------|
E|3-----------3|----------3-----|
        C
But I'm yours, you know
D                          G    (C) (D)
And I'll love you still in hell
 

     1       2       3       4        5        6           7
G|-------|-------|-------|-------|5--------|-------|------------|
D|5------|-------|5------|-------|--5-2----|-------|5-----------|
A|--5-2--|-------|--5-2--|-------|------3-0|-------|--5-2---5555|
E|------3|-------|------3|-------|---------|-------|------3-----|

      G
1 And I hope they didn't tie up
     G
2 Your hands as tight as mine
     G
3 I'll see you on the bed of
          C      D        G
4 This blue ocean, babe sometime
        C
5 But I'm yours, you know
  D                          G
6 And I'll love you still in hell
        D7  (D)
7 Then we fell, And I'm singin'

CHORUS:

G|----------------|----------------|
D|--------------2-|----------------|
A|-----------22---|22-55---2-------|
E|3-3-----33------|------3---5-2-3-|

G
Yo ho, Sebastian!
G        Bm   Em
Let's go far away
Bm                  D                G
Somewhere where the captain won't be mad
G
Yo ho, Sebastian!
  G     Bm       Em
I wanna love you good
    Bm              D                 G
And we deserve much better than we've had [x2]


OUTRO: NO BASS
Bm              D                 G
We deserve much better than we've had
 

Suggest correction new What's this?
You can suggest a correction to this tab. Community and Mods will review your correction and vote to approve or reject it.
comments
We did not receive enough feedback on this tab! Please rate:
print report bad tab
1 2 3 4 5
2 comments total.
0 reply
flamefox26 17 wrote on February 18 2013, 09:43 pm

really good starting point!

0 reply
BassDanno 11 wrote on February 21 2013, 04:17 am

thanks, good song, bass line doesn't need to be any more complicated than this. Good effort!

guest
You may want to rate the tab now too:
select rating
Please do not post tabs as comments. Select "correction" instead!