Oops, an error
Loading. Please wait.

Mummys Been Drinking Tab

19 views 1 this week
no commentswrite comment
1 2 3 4 5
3 more votes to show rating
add to favorites
launch autoscroll
font size
0
reset
how to read this tab
guitar tuner
Autoscroll
slow
fast
+/-
esc
set tempo
stop
Help us to improve Ultimate-Guitar.com Take our survey!
×
Author
Difficulty
advanced
About this tab version
It is the First original by me. Was this info helpful? Yes No
==========================================================================================================
                             Mummy's Been Drinking (Solo) - Cosmo Jarvis
==========================================================================================================



|---------------------------------------------5p4p2-------------------------------------------------------|
|----12br-9-----------------------------------------5p4p2-0-----------------------------------------------|
|-13--------11-9----------11br-9--------------------------------------------------------------------------|
|----------------11~~---------------------------------------2~1-------------------------------------------|
|--------------------------------9/11\9~~\\\---------------------2----------------------------------------|
|------------------------------------------------------------------2~~~/5---------------------------------|
  
|---------------------------------------------------------------------------------------------------------|
|----------------2-2h4h5~4~3~4~5~~~7~~~9~~~12~~~10~~~12~~~14~~~17~~~~16brbr-------------------------------|
|-----------1h2h4-----------------------------------------------------------------------------------------|
|------1h2h4----------------------------------------------------------------------------------------------|
|-0h2h4---------------------------------------------------------------------------------------------------|
|---------------------------------------------------------------------------------------------------------|
   FAST
   FAST
|-------------------16----16-17--19-19---19-19-19\17--17-17-17\16--16-16-16\14--14-14-14\\\---------------|
|-17-16-17-19-17-19----19----------------------------------------------------------------\\\--------------|
|-----------------------------------------------------------------------------------------\\\-------------|
|---------------------------------------------------------------------------------------------------------|
|---------------------------------------------------------------------------------------------------------|
|---------------------------------------------------------------------------------------------------------|

|--------------------------------------------------------------------2? --Incoherent rambling--/12--------|
|-5p2h5p2h5p2h5p2h5p2h5p2/4p1h4p1h4p1/5p2h5p2/7p4h7p4h7p4 Etc.-5p2p0-------& sounds------------/13--------|
|---------------------------------------------------------------------------------------------------------|
|---------------------------------------------------------------------------------------------------------|
|---------------------------------------------------------------------------------------------------------|
|---------------------------------------------------------------------------------------------------------|

|-14tr-12tr-11tr-----------------------------12---------------------------------------14------------------|
|---------------------14-12-14-14~~-14-12-14----14-12-14--14-12-14--14-12-14/17-14-17----17-14-17\--------|
|---------------------------------------------------------------------------------------------------------|
|---------------------------------------------------------------------------------------------------------|
|---------------------------------------------------------------------------------------------------------|
|---------------------------------------------------------------------------------------------------------|

|---------------------------------------------------------------------------------------------------------|
|-14-12-14--14-12-14-12-----12~-------------12br--------------------------(9)-----------------------------|
|-----------------------13------13-11-13-11------------------9-9------11v~-9v~~-----6---------------------|
|--------------------------------------------------------9-9-----11---------------9---9-6-5-------6-------|
|-------------------------------------------------11-9--------------------------------------9-7-9---9-x---|
|---------------------------------------------------------------------------------------------------------|

|----------------------------------------------------21b~~~r-21-22b~~~r-21-22-21-22-21--21b~~~r--xxScrapes|
|---------------------------------------------------------------------------------------------------------|
|---------------------------------------------------------------------------------------------------------|
|---------------------------------------------------------------------------------------------------------|
|-9~~b-x--9~~b-x--9~~b-x--9~~b-x--9~~b-x--9~~b-x----------------------------------------------------------|
|---------------------------------------------------------------------------------------------------------|

|-------------------16-------------------------------------------------------------------------------------|
|-17-16-17-19-17-19----19-17~~~~--x-17-16-14~~-----16b~~~~-14-16b~~~~~14-----------------------------------|
|-------------------------------------------------|Do this two more times then some random muting and stuff|
|----------------------------------------------------at the end--------------------------------------------|
|----------------------------------------------------------------------------------------------------------|
|----------------------------------------------------------------------------------------------------------|





************************************

| x   Mute
|(n)  Ghost note
| h   Hammer-on
| p   Pull-off
| r   Release
| b   Bend
| br  Bend release
| /   Slide up
| \   Slide down
| ~   Let ring
| v   Vibrato
| Tr  Tremelo Picking

************************************
Suggest correction
Give kudos to tab author, rate the tab!
1 2 3 4 5
comments
print report bad tab
guest
You may want to rate the tab now too:
select rating
Wanna post a correction for this tab? Suggest correction