Oops, an error
Loading. Please wait.

She Doesnt Mind Chords

5,081 views 3 this week
2 commentsread comments
1 2 3 4 5
excellent!
x 4
add to favorites
launch autoscroll
font size
0
reset
transpose
0
reset
display chords
guitar tuner
Tab Pro tools
  • play this tab
  • loop segment
  • change instrument
  • show fretboard
  • metronome
×
Best way to learn
"She Doesnt Mind"
Autoscroll
slow
fast
+/-
esc
set tempo
stop
Contributor
Difficulty
advanced
She Doesn't Mind - Cosmo Jarvis

Standard Tuning

B   F#  B  F#  Abm
Oh, oh, oh
B   F#  B  F#  Abm
Oh, oh, oh
B   F#  B  F#  Abm
Oh, oh, oh
B   F#  B  F#  Abm
Oh, oh, oh
B   F#  B  F#  Abm
Oh, oh, oh

e|---11-9~----11-9-11-9--7h9-7-6-------6---------------7---------7-----------|
B|-9--------9--------------------7-9-7---7-9-------7-9------7-9--------------|
G|-------------------------------------------------------8---------8---------|
D|---------------------------------------------------------------------------|
A|---------------------------------------------------------------------------|
E|---------------------------------------------------------------------------|

e|---------------------------------------2-----------------------------------|
B|-----------------------------------4-2---4p2p0-----------------------------|
G|-6-8-6-------------8-----8/9//11-------------------------------------------|
D|---------6-9-6---6---6-9--------------------------6p4---4~/6---------------|
A|-------9----------------------------------------------6--------------------|
E|---------------------------------------------------------------------------|

e|----------------------7----7~---6-7-6--------------------------------------|
B|-----------------7--9---9-------------9-7-9-4h7-4--------------------------|
G|-8---6---6h7h8-------------------------------------------------------------|
D|---9---9-------------------------------------------------------------------|
A|---------------------------------------------------------------------------|
E|---------------------------------------------------------------------------|

        B                       E
Mum and Dad, I met a girl, she's got great teeth and she's marrying me
           C#m          F#                                      Abm
And she's a great cook, she's about to finish writing her fifth book
        B                                     E
Mum and dad, she paints as well, she wrote her own theory of relativity
                 C#m       F#             Abm
It's better than Einstein's, oh and she's all mine
        B                                         E
Mum and dad, I love her more, than I've ever loved anything, and you should hear her sing,
            C#m         F#                      Abm
she's got a record deal, and if she leaves me I won't heal
        B                                            E
Mum and dad, she found a way, to put an end to global warming, during our breakfast just 
this morning
                     C#m   F#                               Abm
She's getting a Nobel Prize, she's the best damn woman alive

(small note on the chorus, if you play the F# as the 9th fret A barre chord shape and 
the second F# as
an 2nd fret E shape barre chord it will fit in with the bass better)

                         B   F#  B      F#           
      Abm
And she doesn't mind the oh, oh, oh, she doesn't mind the...
                         B   F#  B      F#           
      Abm
She doesn't mind the oh, oh, oh, she doesn't mind the...
                         B   F#  B      F#           
      Abm
She says she doesn't mind the oh, oh, oh, she doesn't mind the...
                         B   F#  B      F#           
      Abm
She doesn't mind the oh, oh, oh, she doesn't mind the...
                         B   F#  B      F#           
      Abm
She doesn't mind the oh, oh, oh, she doesn't mind the...


e|------------|  e|--11~~~--|
B|--12~~~~----|  B|--12~~~--|
G|--13~~~~----|  G|---------|
D|------------|  D|---------|
A|------------|  A|---------|
E|------------|  E|---------|

        B                                      E
Mum and dad, I met a girl, she says she's gunna be my wife and complete my life
            C#m           F#                      Abm
She's got a science degree, we fell in love at university
        B                                    E
Mum and dad, this one's got brains, and she's so damn smart, knows Shakespeare off by heart
           C#m     F#                  Abm
Her dad's a doctor,  so glad I got her
        B
Mum and dad, she's an active member of Greenpeace
              E
She's from an educated home, and she plays the trombone
         C#m          F#              Abm
Makes my heart tingle, she's trilingual
        B                                     E
Mum and dad, she's curing cancer, and you can meet next week
                                      C#m        F#                    
        Abm
She's coming down to make a speech on stem cells, I think the wedding is gunna go well

                         B   F#  B      F#           
      Abm
And she doesn't mind the oh, oh, oh, she doesn't mind the...
                         B   F#  B      F#           
      Abm
She doesn't mind the oh, oh, oh, she doesn't mind the...
                         B   F#  B      F#           
      Abm
She says she doesn't mind the oh, oh, oh, she doesn't mind the...
                         B   F#  B      F#           
      Abm
She doesn't mind the oh, oh, oh, she doesn't mind the...
                         B   F#  B      F#           
      Abm
She doesn't mind the oh, oh, oh, she doesn't mind the...

Guitar Solo (same chords as chorus)

Repeat chorus with vocal ad-libs.

(I started tabbing out the solo but the guitarist started doing all these jazzy style
runs and I will have to admit I gave up)
comments
print report bad tab
2 comments total.
0 reply
deathfromala wrote on December 5 2013, 09:56 pm

Really nice. shame bout the last solo :| but still good. :P

Also; is this
e|------------| e|--11~~~--|
B|--12~~~~----| B|--12~~~--|
G|--13~~~~----| G|---------|
D|------------| D|---------|
A|------------| A|---------|
E|------------| E|---------|

meant to be:?
e|----------------| e|---------------|
B|--9~~~~---------| B|--12~~~--------|
G|--11brb(13)~~~~-| G|--14brb(15)~~~-|
D|----------------| D|---------------|
A|----------------| A|---------------|
E|----------------| E|---------------|

-1 reply
kolelindor wrote on March 15 2014, 04:53 pm

The chorus and the intro should be Abm B E B F#. Other than that nice tab!

I want to post or [tab]
guest
You may want to rate the tab now too:
select rating
Please do not post tabs as comments. Select "correction" instead!