Oops, an error
Loading. Please wait.

Sure As Hell Not Jesus Tab

19 views 1 this week
no commentswrite comment
1 2 3 4 5
3 more votes to show rating
add to favorites
launch autoscroll
font size
0
reset
how to read this tab
guitar tuner
Autoscroll
slow
fast
+/-
esc
set tempo
stop
Help us to improve Ultimate-Guitar.com Take our survey!
×
Author
Difficulty
Capo
advanced
2nd fret
About this tab version
It's the first original by me. Was this info helpful? Yes No
================================================================================================
                        Sure As Hell Not Jesus (Solo) - Cosmo Jarvis
================================================================================================
Now, this has a Capo on 2 but for ease of mind.. The numbers are they're correct fret so you don't
have to be reading and then remembering that 5 would actually mean on the 7th fret because of the Capo.
So just play it how it is..
At the Tremelo picking part, the '0' is actually the 2nd fret because of the Capo... But that's the only 
thing the Capo effects.. the rest you can just play without worrying about it.
If you want the Capo effected tab then HMU but for now, I think this is easier.
Enjoy




After "Don't behave next week"
|-7~-------7~----------12~~12~~\\\------------4----------------------4-------12~12~------------|
|-9~-8p7p5-7~5---------11~~11~~\\\------7-5-7---5~~------5v~~--7-5-7---5~~---11~11~-11~~~\\----|
|---------------10/11~~11~~11~~\\\-----------------6-4-6------------------6--------------------|
|----------------------------------------------------------------------------------------------|
|----------------------------------------------------------------------------------------------|
|----------------------------------------------------------------------------------------------|

|-------4------------------12--------------4-----(7)------------------4------------------------|
|-7-5-7---5~~--12p9------9----14----57-5-7---5~~--7br-7p5-------7-5-7---5~~---12br-------------|
|------------6------11-9------------------------6--------6-6---------------6-------9-11-11v~~--|
|----------------------------------------------------------------------------------------------|
|----------------------------------------------------------------------------------------------|
|----------------------------------------------------------------------------------------------|

|-------4--------------------------------------------------------------------------------------|
|-7-5-7---5~~----------------------------------------------------------------------------------|
|------------6-6-5-4-3~~//-x11-11~~-11-9-11---11-9-11b---11-9-11br-11brbrbrbrbrbrb~~~~~~~r-----|
|----------------------------------------------------------------------------------------------|
|----------------------------------------------------------------------------------------------|
|----------------------------------------------------------------------------------------------|



Quieter part
Gtr1                                       x3 Then
|-12~~~~-------------------------------------|-12~~~~-11-11~~~~9--9~~~~~7-7~~~~5~~7~~~~--------|
|-14~~~~9--9~~~~9-12~~9~~12~~9~~12~~9~~12~~9-|-14~~~~-12-12~~~~10-10~~~~9-9~~~~7~~9~~~~--------|
|---------------9-11~~9~~11~~9~~11~~9~~11~~9-|------------------------------------9~~~~--------|
|-------11-11~~~~----------------------------|-------------------------------------------------|
|--------------------------------------------|-------------------------------------------------|
|--------------------------------------------|-------------------------------------------------|
Run-Ups
Gtr2 
|----------------------------------------------------------------------------------------------|
|--------------------------------------------------------------------7~~-----------------------|
|-----------------------------------------6------6-8----6-8-9-6--8-9----9~~~~------------------|
|--------------6------6-7----6-7-9-6--7-9---7--9-----9-----------------------------------------|
|-6-7-9-6--7-9---7--9-----9--------------------------------------------------------------------|
|----------------------------------------------------------------------------------------------|
Gtr3 
|-----------------------------------------------------------4------4-5~~-----------------------|
|--------------------------------4------4-5----4-5-7-4--5-7---5--7------5~~~~------------------|
|--------------4------4-6----4-6---4--6-----6--------------------------------------------------|
|-4-6-7-4--6-7---6--7-----7--------------------------------------------------------------------|
|----------------------------------------------------------------------------------------------|
|----------------------------------------------------------------------------------------------|



Solo 2
After "Pray for me"
|-9-12-9-12b~~~9-12~~~~-9-12-9-12b~~~-9-12---7p6--------------7p4-------------------4~~--------------9~~--|
|-----------------------------------------------7p5-------4/5~---7-5--5p4-------------5----9p8p7-----13b~-|
|---------------------------------------------------4-6~~----------------4~~----4~~-----6-------9-6~------|
|--------------------------------------------------6-----------------------4~~6---------------------------|
|---------------------------------------------------------------------------------------------------------|
|---------------------------------------------------------------------------------------------------------|

Tremelo picking
|---------------------------------------------------------------------------------------------------------|
|-14-00-17-00-16-00-14-00-16-00-14-00-12-00-14-00--14-00-17-00-16-00-11-00-12-00-14-00-16-00--------------|
|---------------------------------------------------------------------------------------------------------|
|---------------------------------------------------------------------------------------------------------|
|---------------------------------------------------------------------------------------------------------|
|---------------------------------------------------------------------------------------------------------|

|---------------------------------------------------------------------------------------------------------|
|11/12tr--11/12tr--11/12tr--11/12tr----10~--10~--10~--10~-------------------------------------------------|
|------------------------------------8~---8~---8~---8~----------------------------------------------------|
|---------------------------------------------------------------------------------------------------------|
|---------------------------------------------------------------------------------------------------------|
|---------------------------------------------------------------------------------------------------------|

Then there's a mixture of the "quieter part" and a palm muted part of the very first section all put together.
Thanks.


~  - let ring
/  - slides
tr - tremelo picking
p  - pull-off
h  - hammer-on
x  - mute
v  - vibrato.

Suggest correction
Give kudos to tab author, rate the tab!
1 2 3 4 5
comments
print report bad tab
guest
You may want to rate the tab now too:
select rating
Wanna post a correction for this tab? Suggest correction