Oops, an error
Loading. Please wait.

The Royal Fuckup Tab

13 views 3 this week
no commentswrite comment
1 2 3 4 5
3 more votes to show rating
add to favorites
launch autoscroll
font size
0
reset
how to read this tab
guitar tuner
Autoscroll
slow
fast
+/-
esc
set tempo
stop
Help us to improve Ultimate-Guitar.com Take our survey!
×
Author
Difficulty
Capo
intermediate
4th fret
About this tab version
It's the first original by me. Was this info helpful? Yes No
================================================================================================
                                The Royal Fuckup - Cosmo Jarvis
================================================================================================
Key Of B Major - (Capo 4) (Shape of G Major)
Chords shown are for the shape and not the actual Key chords.


[Intro/Verses/Bridge]
  G         Em        G         C         G         G/F#      G              G/F#
|-----------------------------------------------------------------------------------|
|--0----0----0----0----0----0----1----1----0----0----0----0----0----0----0----0-----|
|----0----0----0----0----0----0----0----0----0----0----2----0----0----0----0----0---|
|---0----0----2----2----0----0----2----2----0----0----0----0----0----0----0----0----|
|-------------------------------3----3----------------------------------------------|
|-3----3----0----0----3----3--------------3----3----2----2----3----3----3----2------|
  G         C         G         G/F#      C         D         G
|----------------------------------------------------2----2-------------------------|
|--0----0----1----1----0----0----0----0----1----1------3----3--3----3----3----3-----|
|----0----0----0----0----0----0----2----0----0----0---2----2-----0----0----0----0---|
|---2----2----2----2----0----0----0----0----2----2--0----0------0----0----0----0----|
|-----------3----3------------------------3----3------------------------------------|
|-0----0--------------3----3----2----2------------------------3----3----3----3------|



[Pre-chorus/Hook]
  G    G/F# Em  C
|-7-7-x-5-x-3-x-0~~~~~~-------------------------------------------------------------|
|-0-0-x-0-x-0-x-1~~~~~~-------------------------------------------------------------|
|-0-0-x-0-x-0-x-0~~~~~~-------------------------------------------------------------|
|-5-5-x-4-x-2-x-2~~~~~~-------------------------------------------------------------|
|---------------3~~~~~~-------------------------------------------------------------|
|-----------------------------------------------------------------------------------|



[Chorus] (It's hard to hear but I think this is close)
  G         Am        D         G    G/F# Em   Em        G/F#      G         G    G/F# Em
|----------------------2----2---7-7-x-5-x-3-x--------------------------------7-7-x-5-x-3-x--|
|--0-0--0-0--1-1--1-1----3----3-0-0-x-0-x-0-x---0----0--------------0-0--0-0-0-0-x-0-x-0-x--|
|---0----0----2----2----2----2--0-0-x-0-x-0-x----0----0---2----2-----0----0--0-0-x-0-x-0-x--|
|-0----0----0----0----0----0----5-5-x-4-x-2-x-----2----2---0----0--0----0----5-5-x-4-x-2-x--|
|-----------------------------------------------------------0----0--------------------------|
|----------------------------------------------0----0----2----2-----------------------------|
  G         Am        D         G    G/F# Em   Em        G/F#      G         G         G    G/F# Em
|----------------------2----2---7-7-x-5-x-3-x------------------------------------------7-7-x-5-x-3-x--|
|--0-0--0-0--1-1--1-1----3----3-0-0-x-0-x-0-x---0----0--------------0-0--0-0--0-0--0-0-0-0-x-0-x-0-x--|
|---0----0----2----2----2----2--0-0-x-0-x-0-x----0----0---2----2-----0----0----0----0--0-0-x-0-x-0-x--|
|-0----0----0----0----0----0----5-5-x-4-x-2-x-----2----2---0----0--0----0----0----0----5-5-x-4-x-2-x--|
|-----------------------------------------------------------0----0------------------------------------|
|----------------------------------------------0----0----2----2---------------------------------------|



Song Order:

Verse        x2
Pre-Chorus   x1
Chorus       x1
Verse        x2
Pre-Chorus   x1
Chorus       x1
Bridge       x1
Verse        x1
Pre-Chorus   x1
Verse        x4
Pause
Verse        x1
Verse        x1 (Chord Strumming at the start)
Chorus (Half)
End On C
Suggest correction
Give kudos to tab author, rate the tab!
1 2 3 4 5
comments
print report bad tab
guest
You may want to rate the tab now too:
select rating
Wanna post a correction for this tab? Suggest correction