Oops, an error
Loading. Please wait.

The Wave That Made Them Happy Tab

7 views 1 this week
no commentswrite comment
1 2 3 4 5
3 more votes to show rating
add to favorites
launch autoscroll
font size
0
reset
how to read this tab
guitar tuner
Autoscroll
slow
fast
+/-
esc
set tempo
stop
Help us to improve Ultimate-Guitar.com Take our survey!
×
Author
Difficulty
intermediate
About this tab version
It's the first original by me. Was this info helpful? Yes No
=================================================================================================
                     The Wave That Made Them Happy - Cosmo Jarvis  (Intro)
=================================================================================================
Thought i'd tab the intro: Note this doesn't repeat in the verse.


  F         C      F       C        F                         C      E7      A     F#7(Dbdim7 sounds better)  
|-5---5---3---3---5---5---3---3---5---5-5---5-5---5-5---5---3---3---4-------5---5---6---6-----|
|--6-6-6---5-5-5---6-6-6---5-5-5---6-6-6-6-6-6-6-6-6-6-6-6---5-5-5-----5-5---5-5-5---5-5-5----|
|---5-------5-------5-------5-------5-----5-----5-----5-------5-------7-------6-------6-------|
|---------------------------------------------------------------------------------------------|
|---------------------------------------------------------------------------------------------|
|---------------------------------------------------------------------------------------------|
  F       Fsus4    F        C     F
|-5---5---6---6---5---5---3---3---5---5-5---5-5---5-5---5-------------------------------------|
|--6-6-6---6-6-6---6-6-6---5-5-5---6-6-6-6-6-6-6-6-6-6-6-6------------------------------------|
|---5-------5-------5-------5-------5-----5-----5-----5---------------------------------------|
|---------------------------------------------------------------------------------------------|
|---------------------------------------------------------------------------------------------|
|---------------------------------------------------------------------------------------------|



Feel free to use/add on to this.
Suggest correction
Give kudos to tab author, rate the tab!
1 2 3 4 5
comments
print report bad tab
guest
You may want to rate the tab now too:
select rating
Wanna post a correction for this tab? Suggest correction