Oops, an error
Loading. Please wait.

Comer Tu Boca tab

by Coti
35 views 1 this week
no commentswrite comment
1 2 3 4 5
3 more votes to show rating
add to favorites
×
Save as Personal and add changes to this tab that will be seen only by you. Learn more ›
×
You can save this tab as Personal to edit and correct it or add notes. All changes will be seen only by you. Learn more »
launch autoscroll
font size
0
reset
how to read this tab
guitar tuner
edit
Autoscroll
slow
fast
+/-
esc
set tempo
stop
Es la primera que subo .... a mi me suena bien , espero k valga ...
  ##Saludos##

  INTRO:

 e-|--10-12-10--9-10-9--7-9-7---5-------|-3-----------2--|
 b-|--10--------------------------6-----|---5-----8---3--|
 g-|--11--------------------------------|----4-5------2--|
 D-|--------0--------0------0-----0-----|----0--------0--|
 A-|------------------------------------|----------------|
 E-|------------------------------------|----------------|


 D-Bm-G-A [x2]

     D                      Bm
Que cómo haga para no extrañarte
        G                    A
no hago nada nena.. yo te extraño.
D                           Bm
Despierto en las mañanas buscando
   G       A
tu carne.

    D                   Bm
Que cómo haga para aguantarme
       G                  A
por lo pronto nena yo te aclaro.....
     D              Bm
no seria capaz de matarme....
   G   A
no no.


     E                     D             C      A     A (2 golpes)
Pero pienso...pienso..pienso..pienso..pienso y pienso

               G     A
Pienso en el momentoooo
              Bm   E
de comer tu boca
            G             A              D       Bm
y todo este tiempo toda espera me parece poca  uuuuu

[misma ronda de acordes]
Pienso en el momentoooo
de comer tu boca
                           A (golpe)
y todo este tiempo toda espera me parece poca D-Bm-G-A [x2]

[ se repite todo con los mismos acordes
y el coro cuatro veces y al final esto]:

            G (rasgueo)      A (rasgueo)
y todo este tiempo toda espera ..........me pareeeece poooca

INTRO:(mas lenta)


 e-|--10-12-10--9-10-9--7-9-7---5-------|-3-----------2--|
 b-|--10--------------------------6-----|---5-----8---3--|
 g-|--11--------------------------------|----4-5------2--|
 D-|--------0--------0------0-----0-----|----0--------0--|
 A-|------------------------------------|----------------|
 E-|------------------------------------|----------------|

D: xx0232  Bm: x24432 G: 320003 A: x02220 E: 022100 C:x32010

**para mi niña k no ago otra cosa k pensar en ella xd**

..........///FIN///...........

            
            
Suggest correction
Creating personal tab
Creating personal tab
You can edit any tab online and save it as your Personal.

You can edit, replace or remove any tab part or add personal notes – all changes will be seen only by you.

Personal tabs can be accessed anytime from any device, even offline.
Learn more »
Give kudos to tab author, rate the tab!
1 2 3 4 5
comments
print report bad tab
guest
Wanna post a correction for this tab? Suggest correction