Oops, an error
Loading. Please wait.

La Suerte tab

version 1
version 1

Whole song

by Coti
39 views 1 this week
no commentswrite comment
1 2 3 4 5
3 more votes to show rating
add to favorites
×
Save as Personal and add changes to this tab that will be seen only by you. Learn more ›
×
You can save this tab as Personal to edit and correct it or add notes. All changes will be seen only by you. Learn more »
launch autoscroll
font size
0
reset
how to read this tab
guitar tuner
edit
Autoscroll
slow
fast
+/-
esc
set tempo
stop
Gm7: 244223
Bm:  224432
E:   022100
D7:  000212
C#:  443334
F#m: 244222
D:   000232


[intro]
       Gm7           Bm       (E)          A      D7       Bm    C#    F#m      Gm7
E-||--------3--------2---2--2--5--5--4--2--0------2--------2-----4-----2--------3---
B-||-------2---------3---3--3--3--3--3--3--2------1--------3-----3-----2--------2---
G-||------2----------4---4--4--4--4--4--4--2------2--------4-----3-----2--------2---
D-||-----4-----------4---4--4--4--4--4--4--2------0--------4-----3-----4--------4---
A-||---(4)-----------2---2--2--2--2--2--2--0------0--------2-----4-----4--------4---
E-||--(2)------------2---2--2--2--2--2--4--0------0--------2-----4-----2--------2---


                Bm    C#
Que quiere la suerte
                 F#m  A
Que anda por mi casa
           D7                  D
Para recordarme que tengo una deuda
                Bm C#
Que no se le escapa

              Bm    C#
Ya me tiene preso,
             F#m  A
Que más esperaba
           D7                  D
Si me regaló tu perfume y tus besos
   C#        F#m  Gm7
A cambio de nada


     Bm
Tal vez
               E               A
Me robará los pétalos del corazón
                 D7                   Bm
La frase más certera en mi mejor canción
                C#                F#m   Gm7
La fé, la madrugada y la fascinación

     Bm
Tal vez
                 E                     A
Se llevará por siempre la pasión de abril,
                  D7                    Bm
La llave de los sueños que guardaba en mi,
                 C#                F#m   Gm7
A cambio de tu amor podría hasta morir


[solo]
       Gm7         Bm           (E)        A      D7       Bm      C#           F#m      Gm7
E-||-----------0------------8/9----12-8/9-8/9-------------------------4/5--4/5--4///5----6---
B-||------0-0/2-----------------------------------------7\6-7--------------------------------
G-||----2--------4\2/4------------------------------------------------5/6--5/6--5///6----6---
D-||--2--------------------------------------------------------------------------------------
A-||-----------------------------------------------------------------------------------------
E-||-----------------------------------------------------------------------------------------


                Bm    C#
Que quiere la suerte
                 F#m  A
Que anda por mi casa
               D7              D
Hay algo que quiso decirme al oido
            Bm C#
Y no se animaba

                Bm    C#
Ya me puso el precio,
              F#m  A
Ya sacó su espada
             D7                    D
Pretende cobrarme que puso en mis besos
   C#        F#m  Gm7
La piel de tu espalda


     Bm
Tal vez
               E               A
Me robará los pétalos del corazón
                 D7                   Bm
La frase más certera en mi mejor canción
                C#                F#m   Gm7
La fé, la madrugada y la fascinación

     Bm
Tal vez
                 E                     A
Se llevará por siempre la pasión de abril,
                  D7                    Bm
La llave de los sueños que guardaba en mi,
                 C#                F#m   Gm7
A cambio de tu amor podría hasta morir


     Bm
Tal vez
                 E                     A
Se llevará por siempre la pasión de abril,
                  D7                    Bm
La llave de los sueños que guardaba en mi,
                 C#                F#m   Gm7
A cambio de tu amor podría hasta morir


[solo]
       Gm7         Bm           (E)          A          D7
E-||---9/10-------7----10-9--7------------------9----------------
B-||--10/11-----7----------------10----9-----------10---9----7---
G-||------------------------------------------9------------------
D-||-------------------------------------------------------------
A-||-------------------------------------------------------------
E-||-------------------------------------------------------------

     Bm       C#         F#m     Gm7
E-||---------------------------------
B-||---------------------------------
G-||-------6-6/7--6------------------
D-||--8-9-------------9---7------8---
A-||---------------------------------
E-||---------------------------------


     Bm
Tal vez
                 E                     A
Se llevará por siempre la pasión de abril,
                  D7                    Bm
La llave de los sueños que guardaba en mi,
                 C#                   F#m   Gm7
A cambio de tu amor ... podría hasta morir


[outtro]
       Gm7         Bm       (E)          A          D7         Bm          C#
E-||-------9\7-7--7/9---7----------------------------------------------12--8/9---
B-||----------------------------9\7-7--7/9--7------------------------------------
G-||------------------------------------------7----------------------------------
D-||-----------------------------------------------------------------------------
A-||-----------------------------------------------------------------------------
E-||-----------------------------------------------------------------------------

                                C#m
E-||--2--1--0--1------2--1--0--1--------------4---
B-||-----------------------------------------5----
G-||--2--2--2--2------2--2--2--2------------6-----
D-||---------------------------------------6------
A-||-------------------------------------(4)------
E-||------------------------------------(4)-------


###--------------------------------###
### Tablatura de:  Enrique Moraño  ###
### Sevilla [España]  para  ATAME  ###
### emorano@   NOV-2004 ###
###--------------------------------###

            
            
Suggest correction
Creating personal tab
Creating personal tab
You can edit any tab online and save it as your Personal.

You can edit, replace or remove any tab part or add personal notes – all changes will be seen only by you.

Personal tabs can be accessed anytime from any device, even offline.
Learn more »
Give kudos to tab author, rate the tab!
1 2 3 4 5
comments
print report bad tab
guest
Wanna post a correction for this tab? Suggest correction