Oops, an error
Loading. Please wait.

Blood Red Sentimental Blues Bass Tab

7 views 3 this week
no commentswrite comment
1 2 3 4 5
3 more votes to show rating
add to favorites
launch autoscroll
font size
0
reset
guitar tuner
Autoscroll
slow
fast
+/-
esc
set tempo
stop
Help us to improve Ultimate-Guitar.com Take our survey!
×
Author
Music: Blood Red Sentimental Blues
Artist: Cotton Jones

Verse:
Start playing on first F Chord

E|-------------------------------------------|
D|-----------------8-10----------8-10-8------|
A|-8~----------8h10------8--8-10--------10-8-|
E|-------------------------------------------|

E|-------------------------------------------|
D|-------------------------------------------|
A|-------------8-10-----------10-8-----------|
E|-6~---------------10---6--6------10-8-6----|

Chorus 1:

E|-------------------------------------------|
D|-----------------8-10----------8-10-8------|
A|-8~----------8h10------8--8-10--------10-8-|
E|-------------------------------------------|

E|-------------------------------------------|
D|-----------------10-10-10-10-10-10-1010----|
A|-8-8-8-8-8-8-8-8---------------------------|
E|-------------------------------------------|

E|-------------------------------------------|
D|-------------------------------------------|
A|-------------8-10-----------10-8-----------|
E|-6~---------------10---6--6------10-8-6----|

Verse:

E|-------------------------------------------|
D|-----------------8-10----------8-10-8------|
A|-8~----------8h10------8--8-10--------10-8-|
E|-------------------------------------------|

E|-------------------------------------------|
D|-------------------------------------------|
A|-------------8-10-----------10-8-----------|
E|-6~---------------10---6--6------10-8-6----|

Chorus 2:

E|-------------------------------------------|
D|-----------------10-10-10-10-10-10-1010----|
A|-8-8-8-8-8-8-8-8---------------------------|
E|-------------------------------------------|

E|-------------------------------------------|
D|-------------------------------------------|
A|-------------8-10-----------10-8-----------|
E|-6~---------------10---6--6------10-8-6----|

Verse:

E|-------------------------------------------|
D|-----------------8-10----------8-10-8------|
A|-8~----------8h10------8--8-10--------10-8-|
E|-------------------------------------------|

E|-------------------------------------------|
D|-------------------------------------------|
A|-------------8-10-----------10-8-----------|
E|-6~---------------10---6--6------10-8-6----|

Chorus 3:

E|-------------------------------------------|
D|-----------------8-10----------8-10-8------|
A|-8~----------8h10------8--8-10--------10-8-|
E|-------------------------------------------|

E|-------------------------------------------|
D|-----------------10-10-10-10-10-10-1010----|
A|-8-8-8-8-8-8-8-8---------------------------|
E|-------------------------------------------|

E|-------------------------------------------|
D|-------------------------------------------|
A|-------------8-10-----------10-8-----------|
E|-6~---------------10---6--6------10-8-6----|

Suggest correction
Give kudos to tab author, rate the tab!
1 2 3 4 5
comments
print report bad tab
guest
You may want to rate the tab now too:
select rating
Wanna post a correction for this tab? Suggest correction