Oops, an error
Loading. Please wait.

Radium Eyes Bass Tab

version 1
version 1

Whole song

Interactive

635 views 1 this week
2 commentsread comments
1 2 3 4 5
please rate
add to favorites
launch autoscroll
font size
0
reset
guitar tuner
Autoscroll
slow
fast
+/-
esc
set tempo
stop
Help us to improve Ultimate-Guitar.com Take our survey!
×
Author
Radium Eyes

E [-----------------------------------------------------------]
A [-----------------------------------------------------------]
D [-----------------------------------------------------------]
G [-3-3---3-3---6---1-1---3-3---3-3---6---1-1---3-3---3-3---6-]

E [-----------------------------------------------------------]
A [-----------------------------------------------------------]
D [-----------------------------------------------------------]
G [-1-1---3-3---3-3---6---6---6-6---6---6---6-6---6---6---6-6-]

E [---------------------------------------------------------]
A [---------------------------------------------------------]
D [---------------------------------------------------------]
G [-6---6---6-6---6---4-4---3---3-3---3---2-2---2-2-0-0-2-2-]

E [---------------------------------------------------------]
A [---------------------------------------------------------]
D [---------------------------------------------------------]
G [-3---3-3---3---2-2---2-2-0---8-6---6---6-6---6---6---6-6-]

E [--------------------------------------I:-------------------]
A [--------------------------------------I:-------------------]
D [--------------------------------------I:-------------------]
G [-6---6---6-6---6---6---6-6---6---4-4--I:-3---3-3---3---2-2-]

E [-------------:I-REST FOR 6 MEASURES!!!!!!!!!!!!!!!!!!!!!!!!-]
A [-------------:I-REST FOR 6 MEASURES!!!!!!!!!!!!!!!!!!!!!!!!-]
D [-------------:I-REST FOR 6 MEASURES!!!!!!!!!!!!!!!!!!!!!!!!-]
G [-2-2-0---8-6-:I-REST FOR 6 MEASURES!!!!!!!!!!!!!!!!!!!!!!!!-]

E [---------------------------------------------------------]
A [---------------------------------------------------------]
D [-----------------------------1-1-4-4-6-6-8-8---11-11-----]
G [-6---6-6---6---6---6-6---6-----------------------------6-]

E [---------------------------------------------------------]
A [---------------------------------------------------------]
D [---------------------------------------------------------]
G [-6-6---6---6---6-6---6---4-4---6---6-6---6---6---6-6---6-]

E [---------------------------------------------------------]
A [---------------------------------------------------------]
D [-------------------------------1-1-----------------------]
G [-4-4---3---3-3---3---2-2---2-2-----2---3---3-3---3---4-4-]

E [----------------------------------------------------------]
A [----------------------------------------------------------]
D [----------------------------------------------------------]
G [-4-4-1---10-8---3-3---3-3---6---1-1---3-3---3-3---6---1-1-]

E [-----------------------------------------------------------]
A [-----------------------------------------------------------]
D [-----------------------------------------------------------]
G [-3-3---3-3---6---1-1---3-3---3-3---6---1-1---3-3---3-4-5-6-]

E [------I:---------------------------------------------------]
A [------I:---------------------------------------------------]
D [------I:---------------------------------------------------]
G [-1-1--I:-2-2---2-2---5---0---2-2---2-2---5---0---2-2---2-2-]

E [-----------------------------11---16\---------------------:I
A [-------------------------------------16-----------14p16---:I
D [------------------------------------------16p17--------16-:I
G [-5---0---2-2---2-3-4-5---0-0------------------------------:I

E [---------------------------------------------------------]
A [---------------------------------------------------------]
D [---------------------------------------------------------]
G [-3-3---2-4-5-6---1-1---3-3---3-3---6---1---3-3---3-4-5-6-]

E [------------------------------------------------------]
A [------------------------------------------------------]
D [------------------------------------------------------]
G [-1-1---3-3---3-4-5-6---1-1---3-3---3-4-5-6---1-1--3-3-]

E [---------------------------------------------------------]
A [---------------------------------------------------------]
D [---------------------------------------------------------]
G [-3-3---6---1---3-3---3-4-5-6---1-1---3-3---3-4-5-6---1-1-]

E [-I:-------------------------------------------:I-]
A [-I:-------------------------------------------:I-]
D [-I:-------------------------------------------:I-]
G [-I:-3-3---3-3---6---1-1---3-3---3-3---6---1-1-:I-]

This is my interpretation of the song. I didn’t see ANY other tabs of it on this
site, so I decided to make my own.

Tell me what you think and you can e-mail me at: ThunderbirdBassist@gmail.com
Suggest correction
What's this?
You can suggest a correction to this tab. Community and Mods will review your correction and vote to approve or reject it.
comments
We did not receive enough feedback on this tab! Please rate:
print report bad tab
1 2 3 4 5
2 comments total.
0 reply
pwninator123 1,438 wrote on February 20 2008, 04:35 pm

great tab, spot on

w00t for my favorite song

0 reply
Alexionz 121 wrote on July 17 2008, 11:26 am

Sorry about the misunderstandings but I seemed to have put the strings backwards. Do not move the notes, just reverse the strings:

G--------------------------------
D--------------------------------
A--------------------------------
E--3-3--3-3--6--1-1-------------- ETC...

guest
You may want to rate the tab now too:
select rating
Please do not post tabs as comments. Select "correction" instead!