Oops, an error
Loading. Please wait.

Radium Eyes Tab

version 1
version 1

Whole song

Interactive

7,401 views 3 this week
7 commentsread comments
1 2 3 4 5
accurate
x 15
add to favorites
launch autoscroll
font size
0
reset
how to read this tab
guitar tuner
Autoscroll
slow
fast
+/-
esc
set tempo
stop
Help us to improve Ultimate-Guitar.com Take our survey!
×
Contributor
Okay, I emailed Count Zero asking them for tabs because I couldn't find ANY of them 
and they sent this:

Radium Eyes
Count Zero

6/4 Time
h=hammer-on
p=pull-off
\=slide

Drop D Tuning: D A D G B e

Intro 1
e|--------------------|--------------------|
B|--------------------|--------------------|
G|--------------------|--------------------|
D|--------------------|--------------------|
A|-3-3----3-3--6--1-1-|-3-3----3-3--6--1-1-|
D|-3-3----3-3--6--1-1-|-3-3----3-3--6--1-1-|

e|--------------------|--------------------|
B|--------------------|--------------------|
G|--------------------|--------------------|
D|--------------------|--------------------|
A|-3-3----3-3--6--1-1-|-3-3----3-3--6------|
D|-3-3----3-3--6--1-1-|-3-3----3-3--6------|

Verse 1
e|--------------------|--------------------|
B|--------------------|--------------------|
G|--------------------|--------------------|
D|--------------------|--------------------|
A|-8------8-8--8------|-8------8-8--8------|
D|-8------8-8--8------|-8------8-8--8------|

e|--------------------|--------------------|
B|--------------------|--------------------|
G|--------------------|--------------------|
D|--------------------|--------------------|
A|-8------8-8--8------|-8------8-8--8--6-6-|
D|-8------8-8--8------|-8------8-8--8--6-6-|

e|--------------------|--------------------|
B|--------------------|--------------------|
G|--------------------|--------------------|
D|--------------------|--------------------|
A|-5-5----5-5--5------|-4-4---4-4-1-1-4----|
D|-5-5----5-5--5------|-4-4---4-4-1-1-4----|

e|--------------------|--------------------|
B|--------------------|--------------------|
G|--------------------|--------------------|
D|--------------------|--------------------|
A|-5-5----5-5--5------|-4-4--4-4-1----10-8-|
D|-5-5----5-5--5------|-4-4--4-4-1----10-8-|

Verse 2
e|--------------------|--------------------|
B|--------------------|--------------------|
G|--------------------|--------------------|
D|-8-8----8-8--8------|-8-8----8-8--8------|
A|-8-8----8-8--8------|-8-8----8-8--8------|
D|-8-8----8-8--8------|-8-8----8-8--8------|

e|--------------------|--------------------|
B|--------------------|--------------------|
G|--------------------|--------------------|
D|-8-8----8-8--8------|-8-8----8-8--8--6-6-|
A|-8-8----8-8--8------|-8-8----8-8--8--6-6-|
D|-8-8----8-8--8------|-8-8----8-8--8--6-6-|

e|-------10----------10----------10----|-------9----------9-----------|
B|----11----11----11----11----11----11-|----11---11----11---11--------|
G|-12----------12----------12----------|-11---------11---------12-----|
D|-------------------------------------|------------------------------|
A|-------------------------------------|------------------------------|
D|-------------------------------------|------------------------------|

e|-------10----------10----------10----|-------9----------9-----------|
B|----11----11----11----11----11----11-|----11---11----11---11--------|
G|-12----------12----------12----------|-11---------11---------12-----|
D|-------------------------------------|------------------------------|
A|-------------------------------------|------------------------------|
D|-------------------------------------|------------------------------|

Chorus 1
e|--------------------|--------------------|
B|--------------------|--------------------|
G|--3p2-----2--3------|--3p2-----2--3------|
D|--1-------1--1------|--1-------1--1------|
A|--------------------|--------------------|
D|--3-----3-3--3------|--3-----3-3--3------|

e|--------------------|--------------------|--------------------|
B|--------------------|--------------------|--------------------|
G|--3p2-----2--3------|--3p2-----2--3------|--3p2-----2--3------|
D|--1-------1--1------|--1-------1--1------|--1-------1--1----8-|
A|--------------------|--------------------|--------------------|
D|--3-----3-3--3----3-|--3-----3-3--3------|--3-----3-3--3------|

Intro 2
e|--------------------|--------------------|
B|--------------------|--------------------|
G|--------------------|--------------------|
D|--------------------|--------------------|
A|-8-8----8-8--8------|-8-8----8-8--8------|
D|-8-8----8-8--8------|-8-8----8-8--8------|

e|--------------------|--------------------------|
B|--------------------|--------------------------|
G|--------------------|--------------------------|
D|--------------------|-3-3-6-6-8-8-10-10--13-13-|
A|-8-8----8-8--8------|-1-1-4-4-6-6-8--8---11-11-|
D|-8-8----8-8--8------|--------------------------|

Verse 3
e|--------------------|--------------------|
B|--------------------|--------------------|
G|--------------------|--------------------|
D|-8-8----8-8--8------|-8-8----8-8--8--6-6-|
A|-8-8----8-8--8------|-8-8----8-8--8--6-6-|
D|-8-8----8-8--8------|-8-8----8-8--8--6-6-|

e|--------------------|--------------------|
B|--------------------|--------------------|
G|--------------------|--------------------|
D|-8-8----8-8--8------|-8-8----8-8--8--6-6-|
A|-8-8----8-8--8------|-8-8----8-8--8--6-6-|
D|-8-8----8-8--8------|-8-8----8-8--8--6-6-|

e|--------------------|--------------------|
B|--------------------|--------------------|
G|--------------------|--------------------|
D|-5-5----5-5--5------|-4-4----4-4-1-1-4---|
A|-5-5----5-5--5------|-4-4----4-4-1-1-4---|
D|-5-5----5-5--5------|-4-4----4-4-1-1-4---|

e|--------------------|----------------------|
B|--------------------|----------------------|
G|--------------------|----------------------|
D|-5-5----5-5--5------|-4-4----4-4-1----10-8-|
A|-5-5----5-5--5------|-4-4----4-4-1----10-8-|
D|-5-5----5-5--5------|-4-4----4-4-1----10-8-|

Chorus 2:
e|--------------------|--------------------|
B|--------------------|--------------------|
G|--------------------|--------------------|
D|-3-3----3-3--6----1-|-3-3----3-3--6----1-|
A|-3-3----3-3--6----1-|-3-3----3-3--6----1-|
D|-3-3----3-3--6----1-|-3-3----3-3--6----1-|

e|--------------------|---------------------|
B|--------------------|---------------------|
G|--------------------|---------------------|
D|-3-3----3-3--6----1-|-3-3----3-4-5-6--1-1-|
A|-3-3----3-3--6----1-|-3-3----3-4-5-6--1-1-|
D|-3-3----3-3--6----1-|-3-3----3-4-5-6--1-1-|

Solo Section (x3)
e|--------------------|--------------------|
B|--------------------|--------------------|
G|--------------------|--------------------|
D|--------------------|--------------------|
A|-2-2----2-2--5----0-|-2-2----2-2--5----0-|
D|-2-2----2-2--5----0-|-2-2----2-2--5----0-|

e|--------------------|---------------------|
B|--------------------|---------------------|
G|--------------------|---------------------|
D|--------------------|---------------------|
A|-2-2----2-2--5----0-|-2-2----2-3-4-5--0-0-|
D|-2-2----2-2--5----0-|-2-2----2-3-4-5--0-0-|

e|---------------------|
B|---------------------|
G|---------------------|
D|-4—-9\4------2h4-----|
A|---------4h5-------4-|
D|---------------------|

Chorus 3
e|-----------------------|--------------------|
B|-11p10-----------------|--------------------|
G|-------10-8------------|--------------------|
D|------------10-8-6-----|-3-3----3-3--6----1-|
A|-------------------8\6-|-3-3----3-3--6----1-|
D|-----------------------|-3-3----3-3--6----1-|

e|-----------------------|---------------------|
B|-11p10-----------------|---------------------|
G|-------10-8------------|---------------------|
D|------------10-8-6-----|-3-3----3-4-5-6--1-1-|
A|-------------------8\6-|-3-3----3-4-5-6--1-1-|
D|-----------------------|-3-3----3-4-5-6--1-1-|

e|-----------------------|--------------------|
B|-11p10-----------------|--------------------|
G|-------10-8------------|--------------------|
D|------------10-8-6-----|-3-3----3-3--6----1-|
A|-------------------8\6-|-3-3----3-3--6----1-|
D|-----------------------|-3-3----3-3--6----1-|

e|-----------------------|---------------------|
B|-11p10-----------------|---------------------|
G|-------10-8------------|---------------------|
D|------------10-8-6-----|-3-3----3-4-5-6--1-1-|
A|-------------------8\6-|-3-3----3-4-5-6--1-1-|
D|-----------------------|-3-3----3-4-5-6--1-1-|

Outro (x4)
e|-----------------------|--------------------4\-|
B|-----6-----------------|-----6-----------------|
G|---------5-7-8--7p5----|---------5-7-8-4/5--5\-|
D|-5h7-----------------8-|-5h7-------------------|
A|-----------------------|-----------------------|
D|-----------------------|-----------------------|

P.S. My first tab; please rate fairly

P.P.S. Go to Count Zero's site at http://www.count-zero.com/
Suggest correction new What's this?
You can suggest a correction to this tab. Community and Mods will review your correction and vote to approve or reject it.
comments
print report bad tab
7 comments total. Showing first comments.
0 reply
shtuff 44 wrote on April 8 2007, 07:10 pm

bull crap its your first tab you knicked this from count zeros myspace page u loser if your gunna copy it atleast give them kudos instead of taking the credit

0 reply
shtuff 44 wrote on April 8 2007, 07:13 pm

ignore it lol my bad i dident read hard enough but ya might wanna tell em its in open d tuning DADF#AD

0 reply
chiz 24 wrote on May 16 2007, 09:15 am

this is full of shit
better delete this piece of crap

guest
You may want to rate the tab now too:
select rating
Please do not post tabs as comments. Select "correction" instead!