Oops, an error
Loading. Please wait.

Radium Eyes Tab

version 2
version 2

Whole song

Interactive

3,897 views 1 this week
2 commentsread comments
1 2 3 4 5
excellent!
x 5
add to favorites
launch autoscroll
font size
0
reset
how to read this tab
guitar tuner
Autoscroll
slow
fast
+/-
esc
set tempo
stop
Help us to improve Ultimate-Guitar.com Take our survey!
×
Difficulty
novice
RADIUM EYES
Tuning: open D (DADF#AD)

intro 1: Guitar 1
D-------------------- D--------------------|
A-------------------- A--------------------|
F#------------------- F#-------------------|
D-8-7-7-7-7-8-x-8---- D-8-7-7-7-7-8-x-8----|
A-------------x------ A-------------x------|
D-------------x------ D-------------x------|

D-------------------- D--------------------|
A-------------------- A--------------------|
F#------------------- F#-------------------|
D-8-7-7-7-7-8-x-8---- D-8-7-7-7-7-8-x-8----|
A-------------x------ A-------------x------|
D-------------x------ D-------------x------|


intro 1: Guitar 2
D-------------------- D--------------------|
A-------------------- A--------------------|
F#------------------- F#-------------------|
D-------------------- D--------------------|
A-3-3----3-3--6----1- A-3-3----3-3--6----1-|
D-3-3----3-3--6----1- D-3-3----3-3--6----1-|
D-------------------- D--------------------|
A-------------------- A--------------------|
F#------------------- F#-------------------|
D-------------------- D--------------------|
A-3-3----3-3--6----1- A-3-3----3-3--6------|
D-3-3----3-3--6----1- D-3-3----3-3--6------|

verse 1:Guitars 1 & 2
D-------------------- D--------------------|
A-------------------- A--------------------|
F#------------------- F#-------------------|
D-------------------- D--------------------|
A-8------8-8--8------ A-8------8-8--8------|
D-8------8-8--8------ D-8------8-8--8------|
Merry is the man with money in his hand

D-------------------- D----------------------|
A-------------------- A----------------------|
F#------------------- F#---------------------|
D-------------------- D----------------------|
A-8------8-8--8------ A-8------8-8--8--6-6---|
D-8------8-8--8------ D-8------8-8--8--6-6---|
grease between the wheels and lamps in his latrine

D-------------------- D----------------------|
A-------------------- A----------------------|
F#------------------- F#---------------------|
D-------------------- D----------------------|
A-5-5----5-5--5------ A-4-4----4-4-1-1-4-----|
D-5-5----5-5--5------ D-4-4----4-4-1-1-4-----|
& stacks of fresh towels for his wet hands. Counting up all his toys.

D-------------------- D-----------------------|
A-------------------- A-----------------------|
F#------------------- F#----------------------|
D-------------------- D-----------------------|
A-5-5----5-5--5------ A-4-4----4-4-1----10-8--|
D-5-5----5-5--5------ D-4-4----4-4-1----10-8--|
Draining tent fire from the neighbors; sermons from soldier boys

verse 2: Guitars 1 & 2
D-------------------- D----------------------|
A-------------------- A----------------------|
F#------------------- F#---------------------|
D-8-8----8-8--8------ D-8-8----8-8--8--------|
A-8-8----8-8--8------ A-8-8----8-8--8--------|
D-8-8----8-8--8------ D-8-8----8-8--8--------|
like our young cadet whose lords require sweat

D-------------------- D----------------------|
A-------------------- A----------------------|
F#------------------- F#---------------------|
D-8-8----8-8--8------ D-8-8----8-8--8--6-6---|
A-8-8----8-8--8------ A-8-8----8-8--8--6-6---|
D-8-8----8-8--8------ D-8-8----8-8--8--6-6---|
‘til Spain is on its ass surrend’ring Philippines
Guitars 1 & 2
D-----12------12------12--- D-----11------11----------|
A---13--13--13--13--13--13- A---13--13--13--13--------|
F#13------13------13------- F#12------12------12------|
D-------------------------- D-------------------------|
A-------------------------- A-------------------------|
D------------------------- D--------------------------|
He’s stuck in ruts wearing lead pants, buried chest deep in a Maginôt

D-----12------12------12--- D-----11------11----------|
A---13--13--13--13--13--13- A---13--13--13--13--------|
F#13------13------13------- F#12------12------12------|
D-------------------------- D-------------------------|
A-------------------------- A-------------------------|
D------------------------- D--------------------------|
Wondering when he’ll touch flesh again, Next chance he gets, he must tell her: “Oh

chorus 1: Guitars 1 & 2
D-------------------- D--------------------|
A-------------------- A--------------------|
F#-4p3-----3--4------ F-#4p3-----3--4------|
D-------------------- D--------------------|
A--6-------6--6------ A--6-------6--6------|
D--3-----3-3--6------ D--3-----3-3--6------|
“you've got Radium eyes You've got Radium eyes, yeah
D-------------------- D--------------------|
A-------------------- A--------------------|
F#-4p3-----3--4------ F-#4p3-----3--4------|
D-------------------- D--------------------|
A--6-------6--6------ A-----6p3--6--6------|
D--3-----3-3--6----3- D--------3-3--6------|
“you've got Radium eyes You've got Radium eyes, yeah
D--------------------|
A--------------------|
F#-4p3-----3--4------|
D------------------8-|
A--6-------6--6------|
D--3-----3-3--6------|
“you've got Radium eyes

intro 2: Guitars 1 & 2
D-------------------- D--------------------|
A-------------------- A--------------------|
F#------------------- F#-------------------|
D-------------------- D--------------------|
A-8-8----8-8--8------ A-8-8----8-8--8------|
D-8-8----8-8--8------ D-8-8----8-8--8------|
your Radium your Radium eyes

D-------------------- D--------------------------|
A-------------------- A--------------------------|
F#------------------- F#-------------------------|
D-------------------- D-3-3-6-6-8-8-10-10--13-13-|
A-8-8----8-8--8------ A-1-1-4-4-6-6-8--8---11-11-|
D-8-8----8-8--8------ D--------------------------|
your Radium

verse 3: Guitars 1 & 2
D-------------------- D---------------------|
A-------------------- A---------------------|
F#------------------- F#--------------------|
D-8-8----8-8--8------ D-8-8----8-8--8--6-6--|
A-8-8----8-8--8------ A-8-8----8-8--8--6-6--|
D-8-8----8-8--8------ D-8-8----8-8--8--6-6--|
He can see his girl with temporary curls,

D-------------------- D---------------------|
A-------------------- A---------------------|
F#------------------- F#--------------------|
D-8-8----8-8--8------ D-8-8----8-8--8--6-6--|
A-8-8----8-8--8------ A-8-8----8-8--8--6-6--|
D-8-8----8-8--8------ D-8-8----8-8--8--6-6--|
Her doorbell fetching maid pour fêtes a la piscine

D-------------------- D---------------------|
A-------------------- A---------------------|
F#------------------- F#--------------------|
D-5-5----5-5--5------ D-4-4----4-4-1-1-4----|
A-5-5----5-5--5------ A-4-4----4-4-1-1-4----|
D-5-5----5-5--5------ D-4-4----4-4-1-1-4----|
but she’s working, changing the bedpans in cities where none but daughters roam

D-------------------- D----------------------|
A-------------------- A----------------------|
F#------------------- F#---------------------|
D-5-5----5-5--5------ D-4-4----4-4-1----10-8-|
A-5-5----5-5--5------ A-4-4----4-4-1----10-8-|
D-5-5----5-5--5------ D-4-4----4-4-1----10-8-|
Stretchers fill ev’ry cathedral; tarpaulins drip from each broken dome

Im still figuring out chorus numba 2 for lead

chorus 2: Guitar 2
D-------------------- D--------------------|
A-------------------- A--------------------|
F#------------------- F#-------------------|
D-3-3----3-3--6----1- D-3-3----3-3--6----1-|
A-3-3----3-3--6----1- A-3-3----3-3--6----1-|
D-3-3----3-3--6----1- D-3-3----3-3--6----1-|
“you've got Radium eyes You've got Radium eyes, yeah

D-------------------- D---------------------|
A-------------------- A---------------------|
F#------------------- F#--------------------|
D-3-3----3-3--6----1- D-3-3----3-4-5-6--1-1-|
A-3-3----3-3--6----1- A-3-3----3-4-5-6--1-1-|
D-3-3----3-3--6----1- D-3-3----3-4-5-6--1-1-|
“you've got Radium eyes You've got Radium eyes, yeah

solo section: Guitar 2
|| D-------------------- D--------------------|
|| A-------------------- A--------------------|
|| F#------------------- F#-------------------|
|| D-------------------- D--------------------|
|| A-2-2----2-2--5----0- A-2-2----2-2--5----0-|
|| D-2-2----2-2--5----0- D-2-2----2-2--5----0-|
(ld gtr solos here which i will get soon also)

D-------------------- D----------------------|
A-------------------- A----------------------|
F#------------------- F#---------------------|
D-------------------- D----------------------|
A-2-2----2-2--5----0- A-2-2----2-3-4-5--0-0--|
D-2-2----2-2--5----0- D-2-2----2-3-4-5--0-0--|

D--------------------- || (x3)
A--------------------- ||
F#-------------------- ||
D-4—-9\4------2h4----- ||
A---------4h5-------4- ||
D--------------------- ||

chorus 3: Guitar 1
D-9p8----------------- D--------------------|
A----9p7-------------- A--------------------|
F#-------7------------ F#-------------------|
D----------9p8-------- D-3-3----3-3--6----1-|
A--------------9p7---- A-3-3----3-3--6----1-|
D--------------------- D-3-3----3-3--6----1-|
... You've got Radium eyes
D-9p8----------------- D---------------------|
A----9p7-------------- A---------------------|
F#-------7------------ F#--------------------|
D----------9p8-------- D-3-3----3-4-5-6--1-1-|
A--------------9p7---- A-3-3----3-4-5-6--1-1-|
D--------------------- D-3-3----3-4-5-6--1-1-|
... You've got Radium eyes, yeah
D-9p8----------------- D--------------------|
A----9p7-------------- A--------------------|
F#-------7------------ F#-------------------|
D----------9p8-------- D-3-3----3-3--6----1-|
A--------------9p7---- A-3-3----3-3--6----1-|
D--------------------- D-3-3----3-3--6----1-|
You got......your eyes You've got Radium eyes, yeah
D-9p8----------------- D---------------------|
A----9p7-------------- A---------------------|
F#-------7------------ F#--------------------|
D----------9p8-------- D-3-3----3-4-5-6--1-1-|
A--------------9p7---- A-3-3----3-4-5-6--1-1-|
D--------------------- D-3-3----3-4-5-6--1-1-|
You got......your eyes You've got Radium eyes, yeah

chorus 4: (x4)Guitar 1
|| D-----3---------------- D-----3-------------6--- ||
|| A---------3-5-6—5p3--1- A---------3-5-6—-------- ||
||. F#-2h3----------------- F#-2h3----------5/6-----||
||. D---------------------- D-----------------------||
|| A---------------------- A----------------------- ||
|| D---------------------- D----------------------- ||
Suggest correction
comments
print report bad tab
2 comments total.
0 reply
manoxanide_gas 10 wrote on June 4 2007, 05:10 pm

looks nice

0 reply
Hershey5 41 wrote on February 3 2008, 07:15 pm

u suck, sorry but u do. it dont even need to be tuned that way man!!

guest
You may want to rate the tab now too:
select rating
Wanna post a correction for this tab? Suggest correction