Oops, an error
Loading. Please wait.

Sail Your Ship By Tab

version 1
version 1

Whole song

Interactive

1,231 views 6 this week
1 commentread comment
1 2 3 4 5
excellent!
x 3
add to favorites
launch autoscroll
font size
0
reset
how to read this tab
guitar tuner
Autoscroll
slow
fast
+/-
esc
set tempo
stop
Help us to improve Ultimate-Guitar.com Take our survey!
×
Author
Difficulty
intermediate
-------------------------------------------------------------------------------
                    Sail your Ship By - Count Zero
-------------------------------------------------------------------------------
I didn't find any tabs for this song so I set out to Tab It all by Myself.  I've got
of it pretty accurate.  Some of the solos might not be correct or complete.  Enjoy

Tabbed by:Phat Stud 55
Email:phatstud55@gmail.com

Tuning:(Low 2 High) DADGBE


Intro
With Some weird effect (I think Wah) This part continues through the verse.
e|---------------------|-----------------------------------------------------|
B|---------------------|-----------------------------------------------------|
G|---------------------|-----------------------------------------------------|
D|---------------------|-----------------------------------------------------|
A|---8-8-8-8---6-6-6-6-|-----------------------------------------------------|
D|---8-8-8-8---6-6-6-6-|---x4------------------------------------------------|

Verse
The distortion that sounds right is on a Digitech Tone Driver on The TS808 Setting.  I
Think that you use the neck Pick-up.
The Settings are
Level:5         Gain:Max
Tone: 4.5       Morph:Max
(The Rythyms are Pretty Simple To figure Out)
e|--------------------------------------------|--|--------------------------------------|
B|--------------------------------------------|--|--------------------------------------|
G|--------------------------------------------|--|--------------------------------------|
D|--------------------------------------------|X2|---8-8--6--8-8-8--------8-8-6--8-8-8--|
A|----8-8--6---8-8-8----------8-8---6--8-8-8--|--|--------------------------------------|
D|--------------------8-8---------------------|--|------------------8-8-----------------|

Then
e|---------------------------------------------------------------------------|
B|---------------------------------------------------------------------------|
G|---------------------------------------------------------------------------|
D|---------------------------------------------------------------------------|
A|---8-8--6--8-8-8---------8-8--6--8-8-8-------------------------------------|
E|--------------------8-8----------------------------------------------------|

PreChorus? (this sounds weird with distortion but It sounds Right)

e|------------------------|---|------------------------------------------------|
B|------------------------|---|------------------------------------------------|
G|----6---8---6---8----11-|---|------------------------------------------------|
D|----6---8---6---8----11-|-x4|------------------------------------------------|
A|------------------------|---|------------------------------------------------|
D|------------------------|---|------------------------------------------------|

Chorus

e|---------------------------------------------------|----|--------------------|
B|------------11-p-10-h-11---------------------------|----|--------------------|
G|-----6--------------------10-p-9-h-10--------------|----|--------------------|
D|-----6----------------------------------8-p-7-h-8--|-x2-|---8--Tied----------|
A|---------------------------------------------------|----|------over----------|
D|---------------------------------------------------|----|--------------------|

Bridge (not sure if they are Chords sound more like single notes. Parentheses Show 
Notes)

e|---------------------------------------------------------------------------|
B|---------------------------------------------------------------------------|
G|---5-------9--------7---------5-------9------7---7-------------------------|
D|--(5)-----(9)------(7)-------(5)-----(9)----(7)-(7)------------------------|
A|---------------------------------------------------------------------------|
D|---------------------------------------------------------------------------|

e|---------------------------------------------------------------------------|
B|---------------------------------------------------------------------------|
G|---5-------9--------7-p-5-h-7-----5-------9------7---7---------------------|
D|--(5)-----(9)------(7)-(5)-(7)---(5)-----(9)----(7)-(7)--------------------|
A|---------------------------------------------------------------------------|
D|---------------------------------------------------------------------------|

Verse 2

e|--------------------------------------------|--|--------------------------------------|
B|--------------------------------------------|--|--------------------------------------|
G|--------------------------------------------|--|--------------------------------------|
D|--------------------------------------------|X2|---8-8--6--8-8-8--------8-8-6--8-8-8--|
A|----8-8--6---8-8-8----------8-8---6--8-8-8--|--|--------------------------------------|
D|--------------------8-8---------------------|--|------------------8-8-----------------|

Then
e|---------------------------------------------------------------------------|
B|---------------------------------------------------------------------------|
G|---------------------------------------------------------------------------|
D|---------------------------------------------------------------------------|
A|---8-8--6--8-8-8---------8-8--6--8-8-8-------------------------------------|
E|--------------------8-8----------------------------------------------------|

Pre-Chorus
e|------------------------|---|------------------------------------------------|
B|------------------------|---|------------------------------------------------|
G|----6---8---6---8----11-|---|------------------------------------------------|
D|----6---8---6---8----11-|-x4|------------------------------------------------|
A|------------------------|---|------------------------------------------------|
D|------------------------|---|------------------------------------------------|

Chorus

e|---------------------------------------------------|----|--------------------|
B|------------11-p-10-h-11---------------------------|----|--------------------|
G|-----6--------------------10-p-9-h-10--------------|----|--------------------|
D|-----6----------------------------------8-p-7-h-8--|-x2-|---8--Tied----------|
A|---------------------------------------------------|----|------over----------|
D|---------------------------------------------------|----|--------------------|

Bridge 2 (verse 3?)  You might have to add or take away a few notes.  Once again the
are that hard to figure out.
e|-----------------------------------|----|--------------------------|
B|-----------------------------------|----|--------------------------|
G|-----------------------------------|----|--------------------------|
D|-----------------------------------|-x4-|--------------------------|
A|--3--3-3--3--3-3-3-3---5--5-5---5--|----|--------------------------|
D|--3--3-3--3--2-2-2-2---5--5-5---5--|----|--------------------------|

Bridge again (the first chord might be wrong)
Palm Mute
e|---------------------------------|----|--------------------------------------|
B|---------------------------------|----|--------------------------------------|
G|---------------------------------|----|--------------------------------------|
D|---------------------------------|-x6-|--------------------------------------|
A|-7--5--3-3-3---7--5--3-x--1-1-1--|----|--------------------------------------|
E|-7--5--3-3-3---7--5--3-x--1-1-1--|----|--------------------------------------|

Chorus

e|---------------------------------------------------|----|--------------------|
B|------------11-p-10-h-11---------------------------|----|--------------------|
G|-------------------------10-p-9-h-10---------------|----|--------------------|
D|---------------------------------------8-p-7-h-8---|-x2-|---8--Tied----------|
A|-7--5----------------------------------------------|----|------over----------|
D|-7--5----------------------------------------------|----|--------------------|

Some Interlude

Solos (not sure about the first two

e|---------------------------------------------------------------------------|
B|---------------------------------------------------------------------------|
G|---------------17-14----17--14-----17--14----------------------------------|
D|--something----------14--------14---------14--9--12-or-11------------------|
A|-----then------------------------------------------------------------------|
D|---------------------------------------------------------------------------|
I think this one goes like this
e|--------------------------------------------------------------------------|
B|--------------------------------------------------------------------------|
G|--------------------------------------------------------------------------|
D|-----16b-----------------17-16--------Repeat both of these lines----------|
A|-----------something-----------17-----------------------------------------|
D|--------------then--------------------------------------------------------|

This is close.  They are probably one fret off but you can search the fretboard around
area and you'll find the notes.
e|----------------------------------------------------|---|--|
B|----14--15---17~---17--19---------------------------|---|--|
G|--------------------------19h21p19--16-19--15--17---|---|--|
D|----------------------------------------------------|-x4|--|
A|----------------------------------------------------|---|--|
D|----------------------------------------------------|---|--|
  Outro
e|------------------------------------|----|--|
B|---x--15---17~----------------------|----|--|
G|----------------16-19-14-16--12--14-|----|--|
D|------------------------------------|-x2----|Interlude then repeat twice more
A|------------------------------------|----|--|
D|------------------------------------|----|--|
This is as close to the solos as I could get.  If you search around in the area that I
written the tab in you can easily find the notes I couldn't get.  I'm sure after I submit
tab I'll figure it all out.  If I figure out the rest I'll post another with the 
solos on it.  Anyway Enjoy the tab.  I worked really hard on this.  If there's any
email me (my address is at the top).


| /  slide up
| \  slide down
| h  hammer-on
| p  pull-off
| ~  vibrato
| +  harmonic
| x  Mute note
| b  bend
======================================================
Suggest correction
What's this?
You can suggest a correction to this tab. Community and Mods will review your correction and vote to approve or reject it.
comments
We did not receive enough feedback on this tab! Please rate:
print report bad tab
1 2 3 4 5
1 comment total.
0 reply
TheLonging 22 wrote on May 20 2009, 06:06 pm

This seems pretty close to what I was thinking of when I play this song. Excellent job, 5* from me.

guest
You may want to rate the tab now too:
select rating
Please do not post tabs as comments. Select "correction" instead!