Oops, an error
Loading. Please wait.

Bouquet tab

version 1
version 1

Whole song

Interactive

487 views 75 this week
no commentswrite comment
1 2 3 4 5
1 last vote to show rating
add to favorites
×
Save as Personal and add changes to this tab that will be seen only by you. Learn more ›
×
You can save this tab as Personal to edit and correct it or add notes. All changes will be seen only by you. Learn more »
launch autoscroll
font size
0
reset
how to read this tab
guitar tuner
edit
Autoscroll
slow
fast
+/-
esc
set tempo
stop
[Bouquet]
[Music Video]
[Counterparts]

Tuning: D G C F A D
Playtherough: https://www.youtube.com/watch?v=tgf390Ip0nQ


[Riff 1, Guitar 1 & 2] - [00:00] - [00:02]
- ---------------------------------
- ---------------------------------
- ---------------------------------
- ---------------------------------
- -3-3-----2-2-----3-3-2-3---3-----
- -3-3-----2-2-----0-0-0-0---0-----
PM ...............................
- ---------------------------------
- ---------------------------------
- -----0-0-----0-0-----------------
- -----5-5-----4-4-----------------
- -3-3-----2-2-----3-3-2-3---3-----
- -3-3-----2-2-----0-0-0-0---0-----
PM ...     ...     ...........


[Riff 2, Guitar 1 & 2] - [00:02] - [00:19]
- -----------------------------------------------------------------
- -----------------------------------------------------------------
- -4-----4---4---------------------4-----4---4---------------------
- -2-----2---2---------------------2-----2---2---------------0-0-0-
- -3-----3---3-------2-2-2-2-3-3-3-3-----3---3-------5-5-5-5-4-4-4-
- ---000-------0-000-0-0-0-0-0-0-0---000-------0-000---------------
PM   ...       ...................   ...       .....
- -----------------------------------------------------------------
- -----------------------------------------------------------------
- -4-----4---4---------------------4-----4---4---------------------
- -2-----2---2---------------------2-----2---2---------------------
- -3-----3---3-------2-2-2-2-3-3-3-3-----3---3--------------[5-5-5]
- ---000-------0-000-0-0-0-0-0-0-0---000-------0-000[3-3-3-3]------
PM   ...       ...................   ...       .....


- -----------------------------------------------------------------
- -----------------------------------------------------------------
- -4-----4---4-----------------------------------------------0-0-0-
- -2-----2---2---------------------2-2-2-5-5-5-0-0-0-5-5-5-5-4-4-4-
- -3-----3---3-------2-2-2-2-3-3-3---------------------------------
- ---000-------0-000-0-0-0-0-0-0-0---------------------------------
PM   ...       .........................       .....
- -----------------------------------------------------------------
- -----------------------------------------------------------------
- -4-----4---4---------------------------4-4-4-------4-4-4-4-2-2-2-
- -2-----2---2---------------------2-2-2-------0-0-0---------------
- -3-----3---3-------2-2-2-2-3-3-3---------------------------------
- ---000-------0-000-0-0-0-0-0-0-0---------------------------------
PM   ...       .........................       .....


- -----------------------------------------------------------------
- -----------------------------------------------------------------
- -4-----4---4---------------------4-----4---4---------------------
- -2-----2---2---------------------2-----2---2---------------0-0-0-
- -3-----3---3-------2-2-2-2-3-3-3-3-----3---3-------5-5-5-5-4-4-4-
- ---000-------0-000-0-0-0-0-0-0-0---000-------0-000---------------
PM   ...       ...................   ...       .....
- -----------------------------------------------------------------
- -----------------------------------------------------------------
- -4-----4---4---------------------4-----4---4---------------------
- -2-----2---2---------------------2-----2---2---------------------
- -3-----3---3-------2-2-2-2-3-3-3-3-----3---3--------------[5-5-5]
- ---000-------0-000-0-0-0-0-0-0-0---000-------0-000[3-3-3-3]------
PM   ...       ...................   ...       .....


- -----------------------------------------------------------------
- -----------------------------------------------------------------
- -4-----4---4-----------------------------------------------0-0-0-
- -2-----2---2---------------------2-2-2-5-5-5-0-0-0-5-5-5-5-4-4-4-
- -3-----3---3-------2-2-2-2-3-3-3---------------------------------
- ---000-------0-000-0-0-0-0-0-0-0---------------------------------
PM   ...       .........................       .....
- ---------------------------------------7-7-7-------7-7-7-7-5-5-5-
- ---------------------------------------8-8-8-------8-8-8-8-7-7-7-
- -4-----4---4-----------------------------------------------------
- -2-----2---2---------------------5-5-5-------4-4-4---------------
- -3-----3---3-------2-2-2-2-3-3-3---------------------------------
- ---000-------0-000-0-0-0-0-0-0-0---------------------------------
PM   ...       .........................       .....


[Riff 3] - [00:19] - [00:21]
- --------------0------------------
- --------10--------10-------------
- -/12--------------------11---\9--
- ---------------------------------
- ---------------------------------
- ---------------------------------


[Riff 4, Guitar 1 & 2] - [00:21] - [00:38]
- -------------------------------------------------------------------------------------------------
- -0~----------------------------------------------------------------------------------------------
- -0~----------------------------------------------------------------------------------------------
- -4~----------------------------------------------------------------------------------------------
- -3~----------------------------------------------------------------------------------------------
- -------------------------------------------------------------------------------------------------
-
- -------------------------------------------------------------------------------------------------
- -12-12-12-12----12-12-12-12-12-12-12----12-12-12-10-10-10-10----10-10-10-10-10-10-10----10-10-10-
- -12-12-12-12----12-12-12-12-12-12-12----12-12-12-11-11-11-11----11-11-11-11-11-11-11----11-11-11-
- -9--9--9--9-----9--9--9--9--9--9--9-----9--9--9--7--7--7--7-----7--7--7--7--7--7--7-----7--7--7--
- -------------------------------------------------------------------------------------------------
- -------------------------------------------------------------------------------------------------


- -------------------------------------------------------------------------------------------------
- -------------------------------------------------------------------------------------------------
- -------------------------------------------------------------------------------------------------
- -------------------------------------------------------------------------------------------------
- -------------------------------------------------------------------------------------------------
- -------------------------------------------------------------------------------------------------
-
- -------------------------------------------------------------------------10-10-10----------------
- -12-12-12-12----------------------------------------------8--8--8-----------------8--8--8--------
- -12-12-12-12-------------------12-12-------------11-11-11----------11-11-------------------11-11-
- -9--9--9--9--9--9--9--9--9--9--------9--9--9--9--------------------------------------------------
- -------------------------------------------------------------------------------------------------
- -------------------------------------------------------------------------------------------------
PM             ................        ....................          .....                   .....


- -------------------------------------------------------------------------------------------------
- -0~----------------------------------------------------------------------------------------------
- -0~----------------------------------------------------------------------------------------------
- -4~----------------------------------------------------------------------------------------------
- -3~----------------------------------------------------------------------------------------------
- -------------------------------------------------------------------------------------------------
-
- -------------------------------------------------------------------------------------------------
- -12-12-12-12----12-12-12-12-12-12-12----12-12-12-10-10-10-10----10-10-10-10-10-10-10----10-10-10-
- -12-12-12-12----12-12-12-12-12-12-12----12-12-12-11-11-11-11----11-11-11-11-11-11-11----11-11-11-
- -9--9--9--9-----9--9--9--9--9--9--9-----9--9--9--7--7--7--7-----7--7--7--7--7--7--7-----7--7--7--
- -------------------------------------------------------------------------------------------------
- -------------------------------------------------------------------------------------------------


- -------------------------------------------------------------------------------------------------
- -------------------------------------------------------------------------------------------------
- -------------------------------------------------------------------------------------------------
- -------------------------------------------------------------------------------------------------
- -------------------------------------------------------------------------------------------------
- -------------------------------------------------------------------------------------------------
-
- -------------------------------------------------------------------------------------------------
- -12-12-12-12-------------------------------------------------------------------------------------
- -12-12-12-12-------------------12-12----------------------11-11-11-------------------------------
- -9--9--9--9--9--9--9--9--9--9--------9--9--9--9--7--7--7-----------7--7--7--7--------------------
- -------------------------------------------------------------------------------------------------
- -------------------------------------------------------------------------------------------------
PM             ................        ....................          ..........


[Riff 5, Guitar 1 & 2] - [00:38] - [00:55]
- -3--3--3--3-----3--3--3--3--3--3--3-----3--3--3--5--5--5--5-----5--5--5--5--5--5--5-----5--5--5--
- -7--7--7--7-----7--7--7--7--7--7--7-----7--7--7--7--7--7--7-----7--7--7--7--7--7--7-----7--7--7--
- -0--0--0--0-----0--0--0--0--0--0--0-----0--0--0--0--0--0--0-----0--0--0--0--0--0--0-----0--0--0--
- -------------------------------------------------------------------------------------------------
- -------------------------------------------------------------------------------------------------
- -------------------------------------------------------------------------------------------------
-
- -------------------------------------------------------------------------------------------------
- -------------------------------------------------------------------------------------------------
- -0--0--0--0-----0--0--0--0--0--0--0-----0--0--0--0--0--0--0-----0--0--0--0--0--0--0-----0--0--0--
- -4--4--4--4-----4--4--4--4--4--4--4-----4--4--4--4--4--4--4-----4--4--4--4--4--4--4-----4--4--4--
- -2--2--2--2-----2--2--2--2--2--2--2-----2--2--2--2--2--2--2-----2--2--2--2--2--2--2-----2--2--2--
- -0--0--0--0-----0--0--0--0--0--0--0-----0--0--0--0--0--0--0-----0--0--0--0--0--0--0-----0--0--0--


- -7--7--7--7-----7--7--7--7--7--7--7-----7--7--7--10-10-10-10----10-10----7-----------------------
- -8--8--8--8-----8--8--8--8--8--8--8-----8--8--8--10-10-10-10----10-10-------------8--------10----
- -0--0--0--0-----0--0--0--0--0--0--0-----0--0--0--0--0--0--0-----0--0--7-----7--7-----7--7-----7--
- -------------------------------------------------------------------------------------------------
- -------------------------------------------------------------------------------------------------
- -------------------------------------------------------------------------------------------------
PM                                                                      .     ....     ....     .
- -------------------------------------------------5--5--5--5-----5--5-----3--------3--------------
- -0--0--0--0-----0--0--0--0--0--0--0-----0--0--0--3--3--3--3-----3--3-----7b-------7br------------
- -0--0--0--0-----0--0--0--0--0--0--0-----0--0--0--0--0--0--0-----0--0-----------------------------
- -4--4--4--4-----4--4--4--4--4--4--4-----4--4--4--5--5--5--5-----5--5-----------------------------
- -3--3--3--3-----3--3--3--3--3--3--3-----3--3--3--------------------------------------------------
- -------------------------------------------------------------------------------------------------


- -7-----------------------------------------------7-----------------------------------------------
- ----------8--------10----8--------7--------8--------------8--------10----8--------7--------8-----
- ----7--7-----7--7-----7-----7--7-----7--7-----7-----7--7-----7--7-----7-----7--7-----7--7-----7--
- -------------------------------------------------------------------------------------------------
- -------------------------------------------------------------------------------------------------
- -------------------------------------------------------------------------------------------------
PM    ....     ....     .     ....     ....     .     ....     ....     .     ....     ....     .
- -------------------------------------------------------------------------------------------------
- -3--3--3--3--------------0--0--0--0--------------3--3--3--3--x--x--x--x--0--0--0--0--------------
- -0--0--0--0--------------0--0--0--0--------------0--0--0--0--x--x--x--x--0--0--0--0--------------
- -4--4--4--4--------------4--4--4--4--------------4--4--4--4--x--x--x--x--4--4--4--4--------------
- -3--3--3--3--------------3--3--3--3--------------3--3--3--3--x--x--x--x--3--3--3--3--------------
- -------------------------------------------------------------------------------------------------


- -7--7--7--7-----7--7--7--7--7--7--7-----7--7--7--5--5--5--5-----5--5--5--5-----------------------
- -8--8--8--8-----8--8--8--8--8--8--8-----8--8--8--7--7--7--7-----7--7--7--7-----------------------
- -0--0--0--0-----0--0--0--0--0--0--0-----0--0--0--0--0--0--0-----0--0--0--0-----------------------
- -------------------------------------------------------------------------------------------------
- -------------------------------------------------------------------------------------------------
- -------------------------------------------------------------------------------------------------
-
- -------------------------------------------------------------------------------------------------
- -------------------------------------------------------------------------------------------------
- -0--0--0--0-----0--0--0--0--0--0--0-----0--0--0--0--0--0--0-----0--0--0--0-----------------------
- -4--4--4--4-----4--4--4--4--4--4--4-----4--4--4--4--4--4--4-----4--4--4--4-----------------------
- -2--2--2--2-----2--2--2--2--2--2--2-----2--2--2--2--2--2--2-----2--2--2--2-----------------------
- -0--0--0--0-----0--0--0--0--0--0--0-----0--0--0--0--0--0--0-----0--0--0--0-----------------------


[Riff 6, Guitar 1 & 2] - [00:55] - [01:12]
- -----------------------------------------------------------------
- -----------------------------------------------------------------
- -4-----4---4---------------------4-----4---4---------------------
- -2-----2---2---------------------2-----2---2---------------0-0-0-
- -3-----3---3-------2-2-2-2-3-3-3-3-----3---3-------5-5-5-5-4-4-4-
- ---000-------0-000-0-0-0-0-0-0-0---000-------0-000---------------
PM   ...       ...................   ...       .....
- -----------------------------------------------------------------
- -----------------------------------------------------------------
- -4-----4---4---------------------4-----4---4---------------------
- -2-----2---2---------------------2-----2---2---------------------
- -3-----3---3-------2-2-2-2-3-3-3-3-----3---3--------------[5-5-5]
- ---000-------0-000-0-0-0-0-0-0-0---000-------0-000[3-3-3-3]------
PM   ...       ...................   ...       .....


- -----------------------------------------------------------------
- -----------------------------------------------------------------
- -4-----4---4-----------------------------------------------0-0-0-
- -2-----2---2---------------------2-2-2-5-5-5-0-0-0-5-5-5-5-4-4-4-
- -3-----3---3-------2-2-2-2-3-3-3---------------------------------
- ---000-------0-000-0-0-0-0-0-0-0---------------------------------
PM   ...       .........................       .....
- -----------------------------------------------------------------
- -----------------------------------------------------------------
- -4-----4---4---------------------------4-4-4-------4-4-4-4-2-2-2-
- -2-----2---2---------------------2-2-2-------0-0-0---------------
- -3-----3---3-------2-2-2-2-3-3-3---------------------------------
- ---000-------0-000-0-0-0-0-0-0-0---------------------------------
PM   ...       .........................       .....


- -----------------------------------------------------------------
- -----------------------------------------------------------------
- -4-----4---4---------------------4-----4---4---------------------
- -2-----2---2---------------------2-----2---2---------------0-0-0-
- -3-----3---3-------2-2-2-2-3-3-3-3-----3---3-------5-5-5-5-4-4-4-
- ---000-------0-000-0-0-0-0-0-0-0---000-------0-000---------------
PM   ...       ...................   ...       .....
- -----------------------------------------------------------------
- -----------------------------------------------------------------
- -4-----4---4---------------------4-----4---4---------------------
- -2-----2---2---------------------2-----2---2---------------------
- -3-----3---3-------2-2-2-2-3-3-3-3-----3---3--------------[5-5-5]
- ---000-------0-000-0-0-0-0-0-0-0---000-------0-000[3-3-3-3]------
PM   ...       ...................   ...       .....


- -----------------------------------------------------------------
- -----------------------------------------------------------------
- -4-----4---4---------------------------------------0-0-0---------
- -2-----2---2---------------------2-2-2-5-5-5-0-0-0-4-4-4---------
- -3-----3---3-------2-2-2-2-3-3-3---------------------------------
- ---000-------0-000-0-0-0-0-0-0-0---------------------------------
PM   ...       .........................       .....
- ---------------------------------------7-7-7-------5-5-5---------
- ---------------------------------------8-8-8-------7-7-7---------
- -4-----4---4-----------------------------------------------------
- -2-----2---2---------------------5-5-5-------4-4-4---------------
- -3-----3---3-------2-2-2-2-3-3-3---------------------------------
- ---000-------0-000-0-0-0-0-0-0-0---------------------------------
PM   ...       .........................       .....


[Riff 7a, Guitar 1 & 2] - [01:12] - [01:37]
- -------------------------------------------------------------------------------------------------
- ---------------------------------------------3-3-3-3-----------------------------3-----3---------
- ---------------------------------------------0-0-0-0-0-0-0-0-0-0-0-0-0-0-0---0-----0-----0---0---
- -2-----2---------7-----9-----5---------------4-4-4-4-4-4-4-4-4-4-4-4-4-4-4-4---4-----4-----4---4-
- -2-----2---2-2-2-5-----7-----3-------3-3-3-3-3-3-3-3-3-3-3-3-3-3-3-3-3-3-3-----------------------
- -0-----0---0-0-0-5-----7-----3-------3-3-3-3-----------------------------------------------------
PM           .....                     .......         .....................
- -------------------------------------------------------------------------------------------------
- ---------------------------------------------3-3-3-3-----------------------------3-----3---------
- ---------------------------------------------0-0-0-0-0-0-0-0-0-0-0-0-0-0-0---0-----0-----0---0---
- -2-----2---------7-----9-----5---------------4-4-4-4-4-4-4-4-4-4-4-4-4-4-4-4---4-----4-----4---4-
- -2-----2---2-2-2-5-----7-----3-------3-3-3-3-3-3-3-3-3-3-3-3-3-3-3-3-3-3-3-----------------------
- -0-----0---0-0-0-5-----7-----3-------3-3-3-3-----------------------------------------------------
PM           .....                     .......         .....................


- -------------------------------------------------------------------------------------------------
- -------------------------------------------------------------------------------------------------
- -------------------------------------------------------------------------------------------------
- -2-----2---------9\----------5---------------------------------------------------7-7-7-7-7-7-7-7-
- -2-----2---2-2-2-7\----2-----3-------3-3-3-3-----3-3-3-3---3-3-3-3---3-3-3-3-----5-5-5-5-5-5-5-5-
- -0-----0---0-0-0-7\----2-----3-------3-3-3-3-----3-3-3-3---3-3-3-3---3-3-3-3-----5-5-5-5-5-5-5-5-
PM           .....       .             .......................................
- -------------------------------------------------------------------------------------------------
- -------------------------------------------------------------------------------------------------
- -------------------------------------------------------------------------------------------------
- -2-----2---------9\----------5---------------------------------------------------7-7-7-7-7-7-7-7-
- -2-----2---2-2-2-7\----2-----3-------3-3-3-3-----3-3-3-3---3-3-3-3---3-3-3-3-----5-5-5-5-5-5-5-5-
- -0-----0---0-0-0-7\----2-----3-------3-3-3-3-----3-3-3-3---3-3-3-3---3-3-3-3-----5-5-5-5-5-5-5-5-
PM           .....       .             .......................................


- -------------------------------------------------------------------------------------------------
- ---------------------------------------------3-3-3-3-----------------------------3-----3---------
- ---------------------------------------------0-0-0-0-0-0-0-0-0-0-0-0-0-0-0---0-----0-----0---0---
- -2-----2---------7-----9-----5---------------4-4-4-4-4-4-4-4-4-4-4-4-4-4-4-4---4-----4-----4---4-
- -2-----2---2-2-2-5-----7-----3-------3-3-3-3-3-3-3-3-3-3-3-3-3-3-3-3-3-3-3-----------------------
- -0-----0---0-0-0-5-----7-----3-------3-3-3-3-----------------------------------------------------
PM           .....                     .......         .....................
- -------------------------------------------------------------------------------------------------
- ---------------------------------------------3-3-3-3-----------------------------3-----3---------
- ---------------------------------------------0-0-0-0-----------------0-0-0---0-----0-----0---0---
- -2-----2---------7-----9-----5---------------4-4-4-4-----------------4-4-4-4---4-----4-----4---4-
- -2-----2---2-2-2-5-----7-----3-------3-3-3-3-3-3-3-3-----------------3-3-3-----------------------
- -0-----0---0-0-0-5-----7-----3-------3-3-3-3-----------------------------------------------------
PM           .....                     .......                         .....


- -------------------------------------------------------------------------------------------------
- -------------------------------------------------------------------------------------------------
- -------------------------------------------------------------------------------------------------
- -2-----2---------9\----------5---------------------------------------------------7-7-7-7-7-7-7-7-
- -2-----2---2-2-2-7\----2-----3-------3-3-3-3-----3-3-3-3---3-3-3-3---3-3-3-3-----5-5-5-5-5-5-5-5-
- -0-----0---0-0-0-7\----2-----3-------3-3-3-3-----3-3-3-3---3-3-3-3---3-3-3-3-----5-5-5-5-5-5-5-5-
PM           .....       .             .......................................
- -------------------------------------------------------------------------------------------------
- -------------------------------------------------------------------------------------------------
- -------------------------------------------------------------------------------------------------
- -2-----2---------9\----------5---------------------------------------------------7-7-7-7-7-7-7-7-
- -2-----2---2-2-2-7\----2-----3-------3-3-3-3-----3-3-3-3---3-3-3-3---3-3-3-3-----5-5-5-5-5-5-5-5-
- -0-----0---0-0-0-7\----2-----3-------3-3-3-3-----3-3-3-3---3-3-3-3---3-3-3-3-----5-5-5-5-5-5-5-5-
PM           .....       .             .......................................


[Riff 7b] - [01:12] - [01:37]
- -12----------------------------------------------------------------------------------------------
- -------12----------------------------------------15--------------12--------------12--------------
- -------------14--12----------12----------12------------12--------------12--------------11--------
- -----------------------16------------16------16--------------16--------------16--------------14--
- -------------------------------------------------------------------------------------------------
- -------------------------------------------------------------------------------------------------

- -----------------------------------------------------------------12--------------14--------------
- -12--------------15------------------------------15------------------------------------10--------
- -------------11--------------12----------12------------12--------------12--------------------12--
- -------14--------------16------------16------16--------------16--------------16------------------
- -------------------------------------------------------------------------------------------------
- -------------------------------------------------------------------------------------------------

- -12----------------------------------------------------------------------------------------------
- -------12br--------------------------------------15--------------12--------------12--------------
- -------------14--12br--------12----------12------------12--------------12--------------11--------
- -----------------------16------------16------16--------------16--------------16--------------14--
- -------------------------------------------------------------------------------------------------
- -------------------------------------------------------------------------------------------------

- -----------------------------------------------------------------12--------------14--------------
- -12--------------15------------------------------15------------------------------------10--------
- -------------11--------------12----------12------------12--------------12--------------------12--
- -------14--------------16------------16------16--------------16--------------16------------------
- -------------------------------------------------------------------------------------------------
- -------------------------------------------------------------------------------------------------


[Riff 8, Guitar 1 & 2] - [01:37] - [01:56]
- -------------10-/14------------------15----------14--------------
- -7---------------------12----------------12------------12--------
- -------9---------------------12--------------12--------------12--
- -----------------------------------------------------------------
- -----------------------------------------------------------------
- -----------------------------------------------------------------
-
- -----------------------------------------------------------------
- -----------------------------------------------------------------
- -------9-----------------------------------------------4---------
- -9-----------9-----------------------------------5-----------5---
- -7-----------------------------------------------5---------------
- -7-----------------------------------------------3---------------


- -------------10------------------------------10------------------
- -------------12--------------------------------------------------
- -------12----12------------------------12--------11---h12--------
- -10------------------------------10------------------------------
- -----------------------------------------------------------------
- -----------------------------------------------------------------
-
- -----------------------------------------------------------------
- -------5-----------------------------------------------0---------
- -------------4-----------------------------------------------0---
- -5-----------------------------------------------7---------------
- -3-----------------------------------------------5---------------
- -3-----------------------------------------------5---------------


- -------------10-/14------------------15----------14--------------
- -7---------------------12----------------12------------12--------
- -------9---------------------12--------------12--------------12--
- -----------------------------------------------------------------
- -----------------------------------------------------------------
- -----------------------------------------------------------------
-
- -----------------------------------------------------------------
- -----------------------------------------------------------------
- -------9-----------------------------------------------4---------
- -9-----------9-----------------------------------5-----------5---
- -7-----------------------------------------------5---------------
- -7-----------------------------------------------3---------------


- -------------10--------------------------------------------------
- -------------12----------------------12--------------------------
- -------12----12------------------------------14------------------
- -10--------------------------------------------------16----------
- -----------------------------------------------------------------
- -----------------------------------------------------------------
-
- -----------------------------------------------------------------
- -------5-----------------------------0---------------------------
- -------------4---------------------------------------------------
- -5---------------------------5--/7-------------------------------
- -3---------------------------3--/5---------------9---------------
- -3---------------------------3--/5-------------------------------


[Riff 4, Guitar 1 & 2] - [01:56] - [02:13]
[Riff 5, Guitar 1 & 2] - [02:13] - [02:30]

[Symbols]

PM... Palm Mute notes with (...) under them
AP... Alternate Pick notes with (...) under them
h     Hammer On
p     Pull Off
[ ]   Harmonic
/     Slide Up
\     Slide Down
x     Dead Note
b     Bend
hb    Hold Bend
pb    Pre-Bend
r     Release Bend
(x )  Play Notes x amount of times
~     Let Ring
\\\   Pick Slide Down
///   Pick Slide Up
/ 3 \ Notes are triplets (3 notes in the space of two)
w\    Whammy Bar Down
w/    Whammy Bar Up
wh    Whammy Bar Hold
T     Right Hand Tap
L     Left Hand Tap

:)
Suggest correction
Creating personal tab
Creating personal tab
You can edit any tab online and save it as your Personal.

You can edit, replace or remove any tab part or add personal notes – all changes will be seen only by you.

Personal tabs can be accessed anytime from any device, even offline.
Learn more »
Give kudos to tab author, rate the tab!
1 2 3 4 5
comments
print report bad tab
guest
You may want to rate the tab now too:
select rating
Wanna post a correction for this tab? Suggest correction