Oops, an error
Loading. Please wait.

Collapse tab

version 2
version 2

Whole song

Interactive

265 views 9 this week
no commentswrite comment
1 2 3 4 5
3 more votes to show rating
add to favorites
×
Save as Personal and add changes to this tab that will be seen only by you. Learn more ›
×
You can save this tab as Personal to edit and correct it or add notes. All changes will be seen only by you. Learn more »
launch autoscroll
font size
0
reset
how to read this tab
guitar tuner
edit
Autoscroll
slow
fast
+/-
esc
set tempo
stop
[Collapse]
[Tragedy Will Find Us]
[Counterparts]

Tuning: C G C F A D
Playthrough: https://www.youtube.com/watch?v=Dqms_kCHx3s

[Riff 1a] - [00:00] - [00:16]
- -----------------------------------------------------------
- -----------------------------------------------------------
- -----------------------------------------------------------
- -12---12------11---11------9-----9-------9-------9-----9---
- -9----9---9-9-7----7---7-7-5---5-5-5-5-5-5-5-5-5-5-5-5-5-5-
- -9----9---9-9-7----7---7-7-5---5-5-5-5-5-5-5-5-5-5-5-5-5-5-
PM          ...          ...     .   .....   .....   ...   .

- ------------------------------------------------
- ------------------------------------------------
- ------------------------------------------------
- -12---12------16---16--------11-----11-----11---
- -9----9---9-9-12---12--12-12-7----7-7--7-7-7--7-
- -9----9---9-9-12---12--12-12-7----7-7--7-7-7--7-
PM          ...          .....      .    ...    .

- -----------------------------------------------------------
- -----------------------------------------------------------
- -----------------------------------------------------------
- -12---12------11---11------9-----9-------9-------9-----9---
- -9----9---9-9-7----7---7-7-5---5-5-5-5-5-5-5-5-5-5-5-5-5-5-
- -9----9---9-9-7----7---7-7-5---5-5-5-5-5-5-5-5-5-5-5-5-5-5-
PM          ...          ...     .   .....   .....   ...   .

- -------------------------------------------------------
- -------------------------------------------------------
- -------------------------------------------------------
- -12---12------16---16--------11---11------12---12------
- -9----9---9-9-12---12--12-12-7----7---7-7-9----9-------
- -9----9---9-9-12---12--12-12-7----7---7-7-9----9-------
PM          ...          .....          ...

[Riff 1b] - [00:16]
- ----------------------------------------------------------------
- ---------------------------------------------10--------------10-
- ------------------------------------------------9----------9----
- -12---12------11---11------9-----9-------9--------12-12-12------
- -9----9---9-9-7----7---7-7-5---5-5-5-5-5-5-5--------------------
- -9----9---9-9-7----7---7-7-5---5-5-5-5-5-5-5--------------------
PM          ...          ...     .   .....   .         ..

- --------------------------------------------------
- ----------------------------------------------x-x-
- ----------------------------------------------x-x-
- -12---12------16---16--------11-----11---9/11-x-x-
- -9----9---9-9-12---12--12-12-7----7-7--7----------
- -9----9---9-9-12---12--12-12-7----7-7--7----------
PM          ...          .....      .    .

- --------------12---12----------------------------9--------------9-
- -8----8---x-x-10---10--x-x----------------------------------------
- -11---11--x-x-x----x---x-x-11\9------9-------------9----------9---
- -x----x---x-x-12---12--x-x--------12-----------------12-12-12-----
- -10---10----------------------------------------------------------
- ------------------------------------------------------------------
PM                                                        ..

- -------------------------------------------------------
- -------------------------------------------------------
- -------------------------------------------------------
- -12---12------16---16--------11---11------12---12------
- -9----9---9-9-12---12--12-12-7----7---7-7-9----9-------
- -9----9---9-9-12---12--12-12-7----7---7-7-9----9-------
PM          ...          .....          ...

[Riff 2] - [00:16] - [00:37]
- -------------------------------------------------
- -------------------------------------------------
- -------------------------------------------------
- -7---------------7-----7-----7---7---------------
- -5---------------5-----5-----5---5---------------
- -5---------------5-----5-----5---5---------------

- -----------------------------------------------------------------------------------
- -----------------------------------------------------------------------------------
- -----------------------------------------------------------------------------------
- -7-7---7---7-7-7-11-11---11---11-11-11-12-12---12---12-12-12-12-12---12---12-12-12-
- -5-5---5---5-5-5-7--7----7----7--7--7--9--9----9----9--9--9--9--9----9----9--9--9--
- -5-5---5---5-5-5-7--7----7----7--7--7--9--9----9----9--9--9--9--9----9----9--9--9--

- -----------------------------------------------------------------------------------
- -----------------------------------------------------------------------------------
- -----------------------------------------------------------------------------------
- -7-7---7---7-7-7-11-11---11---11-11-11-12-12---12---12-12-12-11/12\---x-x----------
- -5-5---5---5-5-5-7--7----7----7--7--7--9--9----9----9--9--9--7-/9-\---x-x----------
- -5-5---5---5-5-5-7--7----7----7--7--7--9--9----9----9--9--9--7-/9-\---x-x----------

- ---------------------------------------9--9----9----9--9--9--9--9----9----9--9--9--
- ---------------------------------------10-10---10---10-10-10-10-10---10---10-10-10-
- ---------------------------------------11-11---11---11-11-11-11-11---11---11-11-11-
- -7-7---7---7-7-7-11-11---11---11-11-11-12-12---12---12-12-12-12-12---12---12-12-12-
- -5-5---5---5-5-5-7--7----7----7--7--7--9--9----9----9--9--9--9--9----9----9--9--9--
- -5-5---5---5-5-5-7--7----7----7--7--7--9--9----9----9--9--9--9--9----9----9--9--9--

- -----------------------------------------------------------------------
- -----------------------------------------------------------------------
- -----------------------------------------------------------------------
- -7-7---7---7-7-7-11-11---11---11-11-11---------------------------------
- -5-5---5---5-5-5-7--7----7----7--7--7--2-2-2-2-2-2-2-2-2-2-2-2-2-2-2-2-
- -5-5---5---5-5-5-7--7----7----7--7--7--2-2-2-2-2-2-2-2-2-2-2-2-2-2-2-2-
PM                                       ...............................

[Riff 3a] - [00:37] - [00:54]
- ---------------------------------------------------------------------
- --------------------------------------------10-----------------------
- -----------------------------------------------9---------------------
- -9\5---7---------7-7---11--------9-9---11br------12-9-9---11br-9\7---
- -9\5-------5-----7-7-------7-----9-9----------------9-9--------9\7---
- -9\5---------5---7-7---------7---9-9----------------9-9--------9\7---

- ---------------------------------------------------------------------------------
- ---------------------------------------------------------------------------------
- ---------------------------------------------------------------------------------
- -9\5---7---------7-7---11--------12-12-12-12-12-12-12-12-12-12-12-12-12-12-x-x-x-
- -9\5-------5-----7-7-------7-----9--9--9--9--9--9--9--9--9--9--9--9--9--9--x-x-x-
- -9\5---------5---7-7---------7---9--9--9--9--9--9--9--9--9--9--9--9--9--9--x-x-x-

- ---------------------------------------------------------------------
- --------------------------------------------10-----------------------
- -----------------------------------------------9---------------------
- -9\5---7---------7-7---11--------9-9---11br------12-9-9---11br-9\7---
- -9\5-------5-----7-7-------7-----9-9----------------9-9--------9\7---
- -9\5---------5---7-7---------7---9-9----------------9-9--------9\7---

- -------------------------------------------------------
- -------------------------------------------------------
- -------------------------------------------------------
- -9\5---7---------11--11----7---7-----12--12----11\-----
- -9\5-------5-----7---7---0-4---4---0-9---9---0-7-\-----
- -9\5---------5---7---7---0-4---4---0-9---9---0-7-\-----

[Riff 3b] - [00:37] - [00:54]
- ---------------------------------------------------------------------
- --------------------------------------------10-----------------------
- -----------------------------------------------9---------------------
- -9\5---7---------7-7---11--------9-9---11br------12-9-9---11br-9\7---
- -9\5-------5-----7-7-------7-----9-9----------------9-9--------9\7---
- -9\5---------5---7-7---------7---9-9----------------9-9--------9\7---

- ---------------------------------------------------9--9--9--9--9--9--9--------
- ---------------------------------15-15-15-14-14-14-10-10-10-10-10-10-10-------
- ---------------------------------x--x--x--x--x--x--11-11-11-11-11-11-11-------
- -9\5---7---------7-7---11--------12-12-12-12-12-12-12-12-12-12-12-12-12-x-x-x-
- -9\5-------5-----7-7-------7--------------------------------------------x-x-x-
- -9\5---------5---7-7---------7------------------------------------------x-x-x-

- ------------------------------------------------------0---------
- --------------------------------------/14-----------------------
- --------------------------------------------11------------------
- -9\5---7---------7-7---11--------9-9------------------------12--
- -9\5-------5-----7-7-------7-----9-9----------------------------
- -9\5---------5---7-7---------7---9-9----------------------------

- -------------------------------------------------------
- -------------------------------------------------------
- -------------------------------------------------------
- -9\5---7---------11--11----7---7-----12--12----11\-----
- -9\5-------5-----7---7---0-4---4---0-9---9---0-7-\-----
- -9\5---------5---7---7---0-4---4---0-9---9---0-7-\-----

[Riff 4, Guitar 1 & 2] - [00:54] - [01:04]
- -----------------------------------------------------------------
- -5---------------------------------------------------------------
- -7---------------------------------------------------------------
- -9-------------------------------------------------------5-------
- -5-------------------------------------------------------5-5-5-5-
- -5-------------------------------------------------------5-5-5-5-
PM                                                           .....
- -----------------------------------------------------------------
- -5---------------------------------------------------------------
- -7---------------------------------------------------------------
- -9-------------------------------------------------------5-------
- -5-------------------------------------------------------5-5-5-5-
- -5-------------------------------------------------------5-5-5-5-
PM                                                           .....

- --------------------------------------------------------------------------
- --------------------------------------------------------------------------
- --------------------------------------------------------------------------
- --------------------------------------------------------------------------
- --------------------------------------------------------------------------
- --------------------------------------------------------------------------
-
- --------------------------------------------------------------------------
- -------------------5------------------------------------------------------
- -7-------7---7---7---7-6br------------------------------------------------
- -7-------7---7----------------------12--------11---------16------14\------
- -5---5-5-5---5---------------------------------------------------x--------
- -5---5-5-5---5-------------------9------9--7------7--12------12--11\------
PM     ...         .....


[Riff 5, Guitar 1 & 2] - [01:04] - [01:14]
- -----------------------------------------------------------------
- -----------------------------------------------------------------
- -------------------------------------------------7---------------
- -7-----------------------7-----------------------11br------------
- -5---5-5-5-------5-5-5-5-5-5-5-5-5---5-----5-5-------------------
- -5---5-5-5-------5-5-5-5-5-5-5-5-5---5-----5-5-------------------
PM   ...................   ...................
- -----------------------------------------------------------------
- -----------------------------------------------------------------
- -----------------------------------------------------------------
- -7-----------------------7---------------------------------------
- -5---5-5-5-------5-5-5-5-5-5-5-5-5---5-----5-5-------------------
- -5---5-5-5-------5-5-5-5-5-5-5-5-5---5-----5-5-------------------
PM   ...................   ...................


- -----------------------------------------------------------------------
- -----------------------------------------------------------------------
- -----------------------------------------------------------------------
- ---------9\-------------------------12--------11-----------------------
- -9-9-9-9-9\----------2-2-----------------------------4--4--4--4--------
- -9-9-9-9-9\----------2-2---------9------9--7------7--5--5--5--5--------
PM .......             ...                                .......
- -----------------------------------------------------------------------
- -----------------------------------------------------------------------
- -----------------------------------------------------------------------
- ---------9\-------------------------12--------11-----------------------
- -9-9-9-9-9\----------------2-2-----------------------4--4--4--4--------
- -9-9-9-9-9\----------------2-2---9------9--7------7--5--5--5--5--------
PM .......                   ...                          .......


[Riff 6a] - [01:14] - [01:25]
- ------------------------------------------------------------------
- -------------------5-------------------------10-------------------
- -7-------7---7---7---7-6br-----------------9----9-----------7-----
- -7-------7---7-------------------------12---------------11--11br--
- -5---5-5-5---5-------------------9-9-9-9----------7-7-7-7---------
- -5---5-5-5---5-------------------9-9-9-9----------7-7-7-7---------
PM     ...         .....           .....            .....

- -------------------------------------------------------------------------------------------------
- -------------------5-----------------------------------------------------------------------------
- -7-------7---7---7---7-6br-----------------------------------------------------------------------
- -7-------7---7----------------------12--------11---------16----------14---------12--------11-----
- -5---5-5-5---5-----------------------------------------------------------------------------------
- -5---5-5-5---5-------------------9------9--7------7--12------12--11------11--9------9--7------7--
PM     ...         .....

[Riff 6b] - [01:14] - [01:25]
- -------------------------------------------------------------------------------------------------
- -22-22-22-22-22-22-22-22-------------------------22----22----22----22-------------19-------------
- -------------------------19-19-19-19-19-19-19-19----19----19----19----19-18-19-21----21-18-19-18-
- -------------------------------------------------------------------------------------------------
- -------------------------------------------------------------------------------------------------
- -------------------------------------------------------------------------------------------------

- -----------------------------------------------------------------------------------------22------21------
- -19-19-19-19-19-19-19-19-19-19-19-19-19-19-19-19-------------------------22------------------------------
- -------------------------------------------------18--19--21--21--19--18----------19----------------------
- ---------------------------------------------------------------------------------------------------------
- ---------------------------------------------------------------------------------------------------------
- ---------------------------------------------------------------------------------------------------------

[Riff 7a] - [01:25] - [02:07]
- -5-------------------------------9-------------------------------
- -5-------------------------------10--------------10--------------
- -7-------------------------------11--------------9---------------
- -9-------------------------------12--------------11--------------
- -5-------------------------------9---------------7---------------
- -5-------------------------------9---------------7---------------

- -5-------------------------------9-------------------------------
- -5-------------------------------10--------------10--------------
- -7-------------------------------11--------------9---------------
- -9-------------------------------12--------------11--------------
- -5-------------------------------9---------------7---------------
- -5-------------------------------9---------------7---------------

- -5-------------------------------9-------------------------------
- -5-------------------------------10--------------10--------------
- -7-------------------------------11--------------9---------------
- -9-------------------------------12--------------11--------------
- -5-------------------------------9---------------7---------------
- -5-------------------------------9---------------7---------------

- -5-------------------------------9-----------------------------------------------
- -5-------------------------------10--------------10------------------------------
- -7-------------------------------11--------------9-------------------------------
- -9-------------------------------12--------------11--------------7---------------
- -5-------------------------------9---------------7---------------5---------------
- -5-------------------------------9---------------7---------------5---------------

[Riff 7b] - [01:25] - [02:07]
- -----------------------------------------------------------------
- -22--------------------------------------------------------------
- ---------------------------------------------------------14------
- -------------------------------------------------------------16--
- -----------------------------------------------------------------
- -----------------------------------------------------------------

- -----------------------------------------------------------------
- -----------------------------------------------------------------
- -14----------------------14------14------------------------------
- -----16----------------------14------14--------------------------
- ---------------------------------------------------------17--16--
- -----------------------------------------------------------------

- -----------------------------------------------------------------
- -----------------------------------------------------------------
- ---------------------------------------------------------14------
- -------------------------------------------------------------16--
- -14--------------------------------------------------------------
- -----------------------------------------------------------------

- -----------------------------------------------------------------
- -----------------------------------------------------------------
- -14----------------------14------14------------------------------
- -----16----------------------14------14--------------------------
- -------------------------------------------------16--------------
- -----------------------------------------------------------------

- ---------------------------------------------------------17------
- -------------------------------------------------------------19--
- -----------------------------------------------------------------
- -----------------------------------------------------------------
- -14----------------------12-/17----------------------------------
- -----------------------------------------------------------------

- -17----------------------17------17------------------------------
- -----19----------------------17------17--------------------------
- -------------------------------------------------18--------------
- -----------------------------------------------------------------
- -----------------------------------------------------------------
- -----------------------------------------------------------------

- ---------------------------------------------------------17------
- -------------------------------------------------------------19--
- -16----------------------14-/19----------------------------------
- -----------------------------------------------------------------
- -----------------------------------------------------------------
- -----------------------------------------------------------------

- -17----------------------17------17----------------------------------------------
- -----19----------------------17------17------------------------------------------
- -------------------------------------------------18--------------16--------------
- ---------------------------------------------------------------------------------
- ---------------------------------------------------------------------------------
- ---------------------------------------------------------------------------------

[Riff 8a] - [02:07] - [02:40]
- ------------------------------------------------------------------------------------------
- ------------------------------------------------------------------------------------------
- ------------------------------------------------------------------------------------------
- -12-12-12-12-12-------12-12-12-12-12-12-12-12-12---12-----12-12---11-11-11-11-11-11-11-11-
- -9--9--9--9--9--------9--9--9--9--9--9--9--9--9----9------9--9----7--7--7--7--7--7--7--7--
- -9--9--9--9--9--------9--9--9--9--9--9--9--9--9----9------9--9----7--7--7--7--7--7--7--7--

- -----------------------------------------------------------------
- -----------------------------------------------------------------
- -----------------------------------------------------------------
- -7-7-7-7-7-------7-7-7-7-7-7-7-7-7-7---7-7---7-7-7-------7-------
- -5-5-5-5-5-------5-5-5-5-5-5-5-5-5-5---5-5---5-5-5-5-5-5-5-4-4-4-
- -5-5-5-5-5-------5-5-5-5-5-5-5-5-5-5---5-5---5-5-5-5-5-5-5-5-5-5-
PM                                                   .....   .....

- ------------------------------------------------------------------------------------------
- ------------------------------------------------------------------------------------------
- ------------------------------------------------------------------------------------------
- -12-12-12-12-12-------12-12-12-12-12-12-12-12-12---12-----12-12---11-11-11-11-11-11-11-11-
- -9--9--9--9--9--------9--9--9--9--9--9--9--9--9----9------9--9----7--7--7--7--7--7--7--7--
- -9--9--9--9--9--------9--9--9--9--9--9--9--9--9----9------9--9----7--7--7--7--7--7--7--7--

- ---------------------------------------------------------------------------------
- ---------------------------------------------------------------------------------
- ---------------------------------------------------------------------------------
- -7-7-7-7-7-------7-7-7-7-7-7-7-7-7-7---7-7---7-7-7-------7-----------7-----------
- -5-5-5-5-5-------5-5-5-5-5-5-5-5-5-5---5-5---5-5-5-5-5-5-5-4-4-4-----5-----------
- -5-5-5-5-5-------5-5-5-5-5-5-5-5-5-5---5-5---5-5-5-5-5-5-5-5-5-5-----5-----------
PM                                                   .....   .....

[Riff 8b] - [02:07] - [02:40]
- -------------------------------------------------------------------------------------------------
- -22-22-22-22-22-22-22-22-22-22-22-22-22-22-22-22-------------------------------------22-22-------
- -------------------------------------------------19-19-19-19-19-19-19-19-18-18-21-21-------18-18-
- -------------------------------------------------------------------------------------------------
- -------------------------------------------------------------------------------------------------
- -------------------------------------------------------------------------------------------------

- -------------------------------------------------------------------------------------------------
- -19-19-19-19-19-19-19-19-19-19-19-19-19-19-19-19-19-19-19-19-19-19-19-19-------------------------
- -------------------------------------------------------------------------21-21-21-21-19-19-19-19-
- -------------------------------------------------------------------------------------------------
- -------------------------------------------------------------------------------------------------
- -------------------------------------------------------------------------------------------------

- -------------------------------------------------------------------------21----------------------
- -22----------22----------22----------22----------22----------22----------------------------------
- -------19----------19----------19----------19----------19----------19----------------------------
- -------------------------------------------------------------------------------------------------
- -------------------------------------------------------------------------------------------------
- -------------------------------------------------------------------------------------------------

- -22----------21----------------------------------------------------------------------------------
- -------------------------22----------------------22----------------------------------------------
- -------------------------------------21----------------------------------------------------------
- -------------------------------------------------------------------------------------------------
- -------------------------------------------------------------------------------------------------
- -------------------------------------------------------------------------------------------------


[Symbols]

PM... Palm Mute notes with (...) under them
AP... Alternate Pick notes with (...) under them
h     Hammer On
p     Pull Off
[ ]   Harmonic
/     Slide Up
\     Slide Down
x     Dead Note
b     Bend
hb    Hold Bend
p     Pre-Bend
r     Release Bend
(x )  Play Notes x amount of times
~     Let Ring
\\\   Pick Slide Down
/ 3 \ Notes are triplets (3 notes in the space of two)
w\    Whammy Bar Down
w/    Whammy Bar Up
T     Right Hand Tap

:)
Suggest correction
Creating personal tab
Creating personal tab
You can edit any tab online and save it as your Personal.

You can edit, replace or remove any tab part or add personal notes – all changes will be seen only by you.

Personal tabs can be accessed anytime from any device, even offline.
Learn more »
Give kudos to tab author, rate the tab!
1 2 3 4 5
comments
print report bad tab
guest
You may want to rate the tab now too:
select rating
Wanna post a correction for this tab? Suggest correction