Oops, an error
Loading. Please wait.

Debris tab

version 1
version 1

Whole song

Interactive

124 views 3 this week
no commentswrite comment
1 2 3 4 5
3 more votes to show rating
add to favorites
×
Save as Personal and add changes to this tab that will be seen only by you. Learn more ›
×
You can save this tab as Personal to edit and correct it or add notes. All changes will be seen only by you. Learn more »
launch autoscroll
font size
0
reset
how to read this tab
guitar tuner
edit
Autoscroll
slow
fast
+/-
esc
set tempo
stop
[Debris]
[The Difference Between Hell and Home]
[Counterparts]

Tuning: C G C F A D
Playthrough: https://www.youtube.com/watch?v=KoKjIiOW67Q

the noise that starts the song can be made by putting your pick at the very end of the low string
sliding it back and forth and letting the pick scrape noises ring out with the open note
gradually increase the distance you slide the pick back and forth

[Riff 1] - [00:03] - [00:07]
- -----------------------------------------------------------------
- -----------------------------------------------------------------
- -------4-----------4---------4-----------------------------------
- -1-----x-----1-----x-----1---x---2-----1-----4-----1-------------
- -1-----2-----1-----2-----1---2---2-----1-----2-----1-------------
- -1-----1-----1-----1-----1---1---2-----1-----------1-------------


[Riff 2, Guitar 1 & 2] - [00:07] - [00:15]
- -----------------------------------------------------------------
- -----------------------------------------------------------------
- -----------------------------------------------------------------
- -2-1---4---1---2---1---4---1---2---1---4---1---------------------
- -2-1---1---1---1---1---1---1---1---1---1---1---------------------     whammy bar down or pre-bend 
- -2-1~--------------------------------------------1-1---1-1-1---1- <-- behind the nut and release 
-
- -----------------------------------------------------------------
- -----------------------------------------------------------------
- -----------------------------------------------------------------
- -2-1---4---1---2---1---4---1---2---1---4---1---------------------
- -2-1---1---1---1---1---1---1---1---1---1---1---------------------     whammy bar down or pre-bend 
- -2-1~--------------------------------------------1-1---1-1-1---1- <-- behind the nut and release


- -----------------------------------------------------------------
- -----------------------------------------------------------------
- -----------------------------------------------------------------
- -------------------------------------------------1-1---1-1-------
- -------------------------------------------------1-1---1-1-------
- -w/16v-(whammy bar up or slide up and vibrato)---1-1---1-1-------
-
- -----------------------------------------------------------------
- -----------------------------------------------------------------
- -----------------------------------------------------------------
- -2-1---4---1---2---1---4---1---2---1---4---1-----1-1---1-1-------
- -2-1---2---1---2---1---2---1---2---1---2---1-----1-1---1-1-------
- -2-1~------1---2---1-------1---2---1-------1-----1-1---1-1-------


[Riff 3, Guitar 1 & 2] - [00:!5] - [00:31] - [x2]
- -----------------------------------------------------------------
- -----------------------------------------------------------------
- -----------------------------------------------------------------
- -1-1---1---1-1-1-1-1---1---1-1-1-1-1---1---1-1-1-4-4---4---4-4-4-
- -1-1---1---1-1-1-1-1---1---1-1-1-1-1---1---1-1-1-4-4---4---4-4-4-
- -1-1---1---1-1-1-1-1---1---1-1-1-1-1---1---1-1-1-4-4---4---4-4-4-
-
- -----------------------------------------------------------------
- -----------------------------------------------------------------
- -----------------------------------------------------------------
- -1-1---1---1-1-1-1-1---1---1-1-1-1-1---1---1-1-1-4-4---4---4-4-4-
- -1-1---1---1-1-1-1-1---1---1-1-1-1-1---1---1-1-1-4-4---4---4-4-4-
- -1-1---1---1-1-1-1-1---1---1-1-1-1-1---1---1-1-1-4-4---4---4-4-4-


- -----------------------------------------------------------------------------
- -----------------------------------------------------------------------------
- -----------------------------------------------------------------------------
- -----------------------------------------------------------------------------
- -----------------------------------------------------------------------------
- -11-11---11---11-11-11-11-11---11---11-11-11-6-6---6---6-6-6-4-4---4-3-3---3-

- -----------------------------------------------------------------------------
- -----------------------------------------------------------------------------
- -10-10---10---10-10-10-10-10---10---10-10-10-6-6---6---6-6-6-6-6---6-6-6---6-
- -x--x----x----x--x--x--x--x----x----x--x--x--x-x---x---x-x-x-x-x---x-x-x---x-
- -8--8----8----8--8--8--8--8----8----8--8--8--4-4---4---4-4-4-4-4---4-4-4---4-
- -----------------------------------------------------------------------------


[Riff 4, Guitar 1 & 2] - [00:31] - [00:35]
- ---------9-----------------------------------9-------9-----------
- -----7---------------------------------7-----------------7-------
- -6h8-----------------------------10--------------------------10--
- -----------------------------------------------------------------
- -----------------------------------------------------------------
- -----------------------------------------------------------------
-
- -----------------------------------------------------------------
- -----------------------------------------------------------------
- -4-4---4---4-4-4-4-4---4---4-4-4-6-6---6---6-6-6-6-6-6-6-6-------
- -4-4---4---4-4-4-4-4---4---4-4-4-6-6---6---6-6-6-6-6-6-6-6-------
- -2-2---2---2-2-2-2-2---2---2-2-2-4-4---4---4-4-4-4-4-4-4-4-------
- -----------------------------------------------------------------


[Riff 5, Guitar 1 & 2] - [00:35] - [00:51]
- -----------------------------------------------------------------
- -----------------------------------------------------------------
- -----------------------------------------------------------------
- -4-4-4-4-4---4-4-4-4-4---4-4-4-4-4---4-4-4---8-8-8---8-8-8-8-8---
- -1-1-1-1-1---1-1-1-1-1---1-1-1-1-1---1-1-1---4-4-4---4-4-4-4-4---
- -1-1-1-1-1---1-1-1-1-1---1-1-1-1-1---1-1-1---4-4-4---4-4-4-4-4---
-
- -9---------------9---------------9---------------13--------------
- -------9---------------9---------------9---------------9---------
- -------------11--------------11--------------11--------------11--
- -----------------------------------------------------------------
- -----------------------------------------------------------------
- -----------------------------------------------------------------


- -----------------------------------------------------------------
- -6-6-6-6-6---6-6-6-6-6-------------------------------------------
- -x-x-x-x-x---x-x-x-x-x---6-6-6-6-6---6-6-6---6-6-6---6-6-6-------
- -6-6-6-6-6---6-6-6-6-6---6-6-6-6-6---4-4-4---3-3-3---3-3-3------- Delay
- -4-4-4-4-4---4-4-4-4-4---4-4-4-4-4---4-4-4---4-4-4---4-4-4-------
- -----------------------------------------------------------------
-
- -9---------------9-----------------------------------------------
- -------9---------------9-----------------------------------------
- -------------11--------------11--10---h11------------------------
- ---------------------------------------------11------------------
- -----------------------------------------------------------------
- -----------------------------------------------------------------


- -----------------------------------------------------------------
- -----------------------------------------------------------------
- -----------------------------------------------------------------
- -4-4-4-4-4-4-4-4-4-4-4-4-4-4-4-4-4-4-4-4-4-4-4-4-8-8-8-8-8-8-8-8-
- -1-1-1-1-1-1-1-1-1-1-1-1-1-1-1-1-1-1-1-1-1-1-1-1-4-4-4-4-4-4-4-4-
- -1-1-1-1-1-1-1-1-1-1-1-1-1-1-1-1-1-1-1-1-1-1-1-1-4-4-4-4-4-4-4-4-
-
- -9---------------9---------------9---------------13--------------
- -------9---------------9---------------9---------------9---------
- -------------11--------------11--------------11--------------11--
- -----------------------------------------------------------------
- -----------------------------------------------------------------
- -----------------------------------------------------------------


- -----------------------------------------------------------------
- -6-6-6-6-6-6-6-6-6-6-6-6-6-6-6-6-6-6-6-6-6-6-6-6-6-6-6-6-6-6-6-6-
- -x-x-x-x-x-x-x-x-x-x-x-x-x-x-x-x-x-x-x-x-x-x-x-x-x-x-x-x-x-x-x-x-
- -6-6-6-6-6-6-6-6-6-6-6-6-6-6-6-6-6-6-6-6-6-6-6-6-6-6-6-6-6-6-6-6-
- -4-4-4-4-4-4-4-4-4-4-4-4-4-4-4-4-4-4-4-4-4-4-4-4-4-4-4-4-4-4-4-4-
- -----------------------------------------------------------------
-
- -9---------------9-----------------------------------------------
- -------9---------------9-----------------------------------------
- -------------11--------------11--10---h11------------------------
- ---------------------------------------------11------------------
- -----------------------------------------------------------------
- -----------------------------------------------------------------


[Riff 6] - [00:51] - [00:55]
- -----------------------------------------------------------------
- -----------------------------------------------------------------
- -----------------------------------------------------------------
- -11------------------------------14----14----14-----\1---2-------
- -9-------------------------------11----11----11-----\1---2-------
- -9-------------------------------11----11----11-----\1---2-------


[Riff 7, Guitar 1 & 2] - [00:55] - [01:13]
- -----------------------------------------------------------------
- -----------------------------------------------------------------
- -----------------------------------------------------------------
- -1-------1---1-------1-----------1-------1---1-------1-----------
- -1---1-1-1---1---1-1-1---2-------1---1-1-1---1---1-1-1---000-0-0-
- -1---1-1-1---1---1-1-1-----1-0-1-1---1-1-1---1---1-1-1---000-0-0-
PM     ...         ...                 ...         ...     .......
- -----------------------------------------------------------------
- -----------------------------------------------------------------
- -----------------------------------------------------------------
- -1-------1---1-------1-----------1-------1---1-------1-----------
- -1---1-1-1---1---1-1-1---2-------1---1-1-1---1---1-1-1---000-0-0-
- -1---1-1-1---1---1-1-1-----1-0-1-1---1-1-1---1---1-1-1---000-0-0-
PM     ...         ...                 ...         ...     .......


- -----------------------------------------------------------------
- -----------------------------------------------------------------
- -----------------------------------------------------------------
- -1-------1---1-------1-----------1-----4-----7-----1-------------
- -1---1-1-1---1---1-1-1---2-------1-----4-----7-----1---------2---
- -1---1-1-1---1---1-1-1-----1-0-1-1-----4-----7-----1---1-111---0-
PM     ...         ...                                   .....
- -----------------------------------------------------------------
- -----------------------------------------------------------------
- -----------------------------------------------------------------
- -1-------1---1-------1-----------1-----4-----7-----1-------------
- -1---1-1-1---1---1-1-1---2-------1-----4-----7-----1---------2---
- -1---1-1-1---1---1-1-1-----1-0-1-1-----4-----7-----1---1-111---0-
PM     ...         ...                                   .....


- -----------------------------------------------------------------
- -----------------------------------------------------------------
- -----------------------------------------------------------------
- ---------------------------------1-------1---1-------1-----------
- -------------------------2-------1---1-1-1---1---1-1-1---0-0-000-
- -4---4-4-4---4---4-4-4-----1-0-1-1---1-1-1---1---1-1-1---0-0-000-
PM     ...         ...                 ...         ...     .......
- -----------------------------------------------------------------
- -----------------------------------------------------------------
- -----------------------------------------------------------------
- ---------------------------------1-------1---1-------1-----------
- -------------------------2-------1---1-1-1---1---1-1-1---0-0-000-
- -1---1-1-1---1---1-1-1-----1-0-1-1---1-1-1---1---1-1-1---0-0-000-
PM     ...         ...                 ...         ...     .......

- -----------------------------------------------------------------
- -----------------------------------------------------------------
- -----------------------------------------------------------------
- -1-------1---1-------1-----------1-----4-----7-----1-1-----------
- -1---1-1-1---1---1-1-1---2-------1-----4-----7-----1-1-----------
- -1---1-1-1---1---1-1-1-----1-0-1-1-----4-----7-----1-1---2-0w\---
PM     ...         ...
- -----------------------------------------------------------------
- -----------------------------------------------------------------
- -----------------------------------------------------------------
- -1-------1---1-------1-----------1-----4-----7-----1-1-----------
- -1---1-1-1---1---1-1-1---2-------1-----4-----7-----1-1-----------
- -1---1-1-1---1---1-1-1-----1-0-1-1-----4-----7-----1-1-----------
PM     ...         ...


[Riff 8, Guitar 1 & 2] - [01:13] - [01:32]
- -----------------------------------------------------------------
- -----------------------------------------------------------------
- -----------------------------------------------------------------
- -1-----0-----1-----0-----4-1-4-------1-----0---------------------
- -1-----0-----1-----0---0-4-1-4-------1-----0-----000-0-0-000-0-0-
- -1-----0-----1-----0---0-4-1-4-------1-----0-----000-0-0-000-0-0-
PM                       .                         ...............
- -----------------------------------------------------------------
- -----------------------------------------------------------------
- -----------------------------------------------------------------
- -1-----0-----1-----0-----4-1-4-------1-----0---------------------
- -1-----0-----1-----0---0-4-1-4-------1-----0-----000-0-0-000-0-0-
- -1-----0-----1-----0---0-4-1-4-------1-----0-----000-0-0-000-0-0-
PM                       .                         ...............


- -----------------------------------------------------------------
- -----------------------------------------------------------------
- -----------------------------------------------------------------
- -1-----0-----1-----0-----4-1-4---1-----4-----7-----1-1-0---------
- -1-----0-----1-----0---0-4-1-4---1-----4-----7-----1-1-0---------
- -1-----0-----1-----0---0-4-1-4---1-----4-----7-----1-1-0-[7]-----
PM                       .
- -----------------------------------------------------------------
- -----------------------------------------------------------------
- -----------------------------------------------------------------
- -1-----0-----1-----0-----4-1-4---1-----4-----7-----1-1-0---------
- -1-----0-----1-----0---0-4-1-4---1-----4-----7-----1-1-0---------
- -1-----0-----1-----0---0-4-1-4---1-----4-----7-----1-1-0-[6]-----
PM                       .


- -----------------------------------------------------------------
- -----------------------------------------------------------------
- -----------------------------------------------------------------
- -1-----0-----1-----0-----4-1-4-------1-----0---------------------
- -1-----0-----1-----0---0-4-1-4-------1-----0-----0---000---------
- -1-----0-----1-----0---0-4-1-4-------1-----0-----0---000---------
PM                       .                         ...............
- -----------------------------------------------------------------
- -----------------------------------------------------------------
- -----------------------------------------------------------------
- -1-----0-----1-----0-----4-1-4-------1-----0---------------------
- -1-----0-----1-----0---0-4-1-4-------1-----0-----0---000---0-----
- -1-----0-----1-----0---0-4-1-4-------1-----0-----0---000---0-----
PM                       .                         ...............


- -----------------------------------------------------------------
- -----------------------------------------------------------------
- -----------------------------------------------------------------
- ---------------------------------1-----4-----7-------1---2-------
- -1-----0-----------0-------------1-----4-----7---1-1-1---2-------
- -1-----0-----------0-------------1-----4-----7---1-1-1---2-------
PM ...................                             ...
- -----------------------------------------------------------------
- -----------------------------------------------------------------
- -----------------------------------------------------------------
- -------------------------4-1-4---1-----4-----7-------1---2-------
- -1-----------1-----0-----4-1-4---1-----4-----7---1-1-1---2-------
- -1-----------1-----0-----4-1-4---1-----4-----7---1-1-1---2-------
PM ...................                             ...


[Riff 9, Guitar 1 & 2] - [01:32] - [01:59]
- -----------------------------------------------------------------
- -----------------------------------------------------------------
- -----------------------------------------------------------------
- -4\1-------------------------------------------------------------
- -4\1-------------------------------------------------------------
- -4\1-------------------------------------------------------------
-
- -----------------------------------------------------------------
- -----------------------------------------------------------------
- -----------------------------------------------------------------
- -----------------------------------------------------------------
- -----------------------------------------------------------------
- -----------------------------------------------------------------


- -----------------------------------------------------------------
- -----------------------------------------------------------------
- -----------------------------------------------------------------
- -4\3-------------------------------------------------------------
- -4\4-------------------------------------------------------------
- -4\3-------------------------------------------------------------
-
- -----------------------------------------------------------------
- -----------------------------------------------------------------
- -----------------------------------------------------------------
- -----------------------------------------------------------------
- -----------------------------------------------------------------
- -----------------------------------------------------------------


- -----------------------------------------------------------------
- -----------------------------------------------------------------
- -------------6-------------------------------6-------------------
- -------3-------------------------------3-------------------------
- -2-------------------------------4-------------------------------
- -----------------------------------------------------------------
-
- -----------------------------------------------------------------
- -----------------------------------------------------------------
- -----------------------------------------------------------------
- -----------------------------------------------------------------
- -----------------------------------------------------------------
- -----------------------------------------------------------------


- -----------------------------------------------------------------
- -----------------------------------------------------------------
- -----------------------------------------------------------------
- -4\1-------------------------------------------------------------
- -4\1-------------------------------------------------------------
- -4\1-------------------------------------------------------------
-
- -----------------------------------------------------------------
- -----------------------------------------------------------------
- -----------------------------------------------------------------
- -4-----------------------------------------------8---------------
- -1-----------------------------------------------4---------------
- -1-----------------------------------------------4---------------


- -----------------------------------------------------------------
- -----------------------------------------------------------------
- -----------------------------------------------------------------
- -4\3-------------------------------------------------------------
- -4\4-------------------------------------------------------------
- -4\3-------------------------------------------------------------
-
- -----------------------------------------------------------------
- ---------------------------------0-------------------------------
- -------------------------------------------------3---------------
- -6---------------------------------------------------------------
- -4---------------------------------------------------------------
- -3---------------------------------------------------------------


- -----------------------------------------------------------------
- -----------------------------------------------------------------
- -------------6-------------------------------6-------------------
- -------3-------------------------------3-------------------------
- -2-------------------------------4-------------------------------
- -----------------------------------------------------------------
-
- -----------------------------------------------------------------
- ---------------------------------0-------------------------------
- -3-----------------------------------------------3---------------
- -----------------6-----------------------------------------------
- -----------------------------------------------------------------
- -----------------------------------------------------------------


[Riff 10a] - [01:59] - [02:36]
- -----------------------------------------------------------------
- -----------------------------------------------------------------
- -----------------------------------------------------------------
- -4-4-4-4-4---4-4-4-4-4---4-4-4-4-4---4-4-4---8-8-8---8-8-8-8-8---
- -1-1-1-1-1---1-1-1-1-1---1-1-1-1-1---1-1-1---4-4-4---4-4-4-4-4---
- -1-1-1-1-1---1-1-1-1-1---1-1-1-1-1---1-1-1---4-4-4---4-4-4-4-4---

- -----------------------------------------------------------------
- -6-6-6-6-6---6-6-6-6-6-------------------------------------------
- -x-x-x-x-x---x-x-x-x-x---6-6-6-6-6---6-6-6---6-6-6---6-6-6-6-6---
- -6-6-6-6-6---6-6-6-6-6---6-6-6-6-6---4-4-4---3-3-3---3-3-3-3-3---
- -4-4-4-4-4---4-4-4-4-4---4-4-4-4-4---4-4-4---4-4-4---4-4-4-4-4---
- -----------------------------------------------------------------

- -----------------------------------------------------------------
- -----------------------------------------------------------------
- -----------------------------------------------------------------
- -4-4-4-4-4---4-4-4-4-4---4-4-4-4-4---4-4-4---8-8-8---8-8-8-8-8---
- -1-1-1-1-1---1-1-1-1-1---1-1-1-1-1---1-1-1---4-4-4---4-4-4-4-4---
- -1-1-1-1-1---1-1-1-1-1---1-1-1-1-1---1-1-1---4-4-4---4-4-4-4-4---

- -----------------------------------------------------------------
- -6-6-6-6-6---6-6-6-6-6-------------------------------------------
- -x-x-x-x-x---x-x-x-x-x---6-6-6-6-6---6-6-6---6-6-6---6-6-6-6-6---
- -6-6-6-6-6---6-6-6-6-6---6-6-6-6-6---4-4-4---3-3-3---3-3-3-3-3---
- -4-4-4-4-4---4-4-4-4-4---4-4-4-4-4---4-4-4---4-4-4---4-4-4-4-4---
- -----------------------------------------------------------------

- -----------------------------------------------------------------
- -----------------------------------------------------------------
- -----------------------------------------------------------------
- -4-4-4-4-4-4-4-4-4-4-4-4-4-4-4-4-4-4-4-4-4-4-4-4-8-8-8-8-8-8-8-8-
- -1-1-1-1-1-1-1-1-1-1-1-1-1-1-1-1-1-1-1-1-1-1-1-1-4-4-4-4-4-4-4-4-
- -1-1-1-1-1-1-1-1-1-1-1-1-1-1-1-1-1-1-1-1-1-1-1-1-4-4-4-4-4-4-4-4-

- -----------------------------------------------------------------
- -6-6-6-6-6-6-6-6-6-6-6-6-6-6-6-6-6-6-6-6-6-6-6-6-6-6-6-6-6-------
- -x-x-x-x-x-x-x-x-x-x-x-x-x-x-x-x-x-x-x-x-x-x-x-x-x-x-x-x-x-------
- -6-6-6-6-6-6-6-6-6-6-6-6-6-6-6-6-6-6-6-6-6-6-6-6-6-6-6-6-6------- Delay
- -4-4-4-4-4-4-4-4-4-4-4-4-4-4-4-4-4-4-4-4-4-4-4-4-4-4-4-4-4-------
- -----------------------------------------------------------------

- -----------------------------------------------------------------
- -----------------------------------------------------------------
- -----------------------------------------------------------------
- -4-4-4-4-4---4-4-4-4-4---4-4-4-4-4---4-4-4---8-8-8---8-8-8-8-8---
- -1-1-1-1-1---1-1-1-1-1---1-1-1-1-1---1-1-1---4-4-4---4-4-4-4-4---
- -1-1-1-1-1---1-1-1-1-1---1-1-1-1-1---1-1-1---4-4-4---4-4-4-4-4---

- -----------------------------------------------------------------
- -6-6-6-6-6---6-6-6-6-6-------------------------------------------
- -x-x-x-x-x---x-x-x-x-x---6-6-6-6-6---6-6-6---6-6-6---6-6-6-6-6---
- -6-6-6-6-6---6-6-6-6-6---6-6-6-6-6---4-4-4---3-3-3---3-3-3-3-3---
- -4-4-4-4-4---4-4-4-4-4---4-4-4-4-4---4-4-4---4-4-4---4-4-4-4-4---
- -----------------------------------------------------------------


[Riff 10b] - [01:59] - [02:17]
- -----------------------------------------------------------------
- -7~------------------------------7~--------------6~--------------
- -10b-----10hb----10hb----10hb----10b-----10hb----9b------9hb-----
- -----------------------------------------------------------------
- -----------------------------------------------------------------
- -----------------------------------------------------------------

- -----------------------------------------------------------------
- -9~------------------------------6~--------------7~--9-9h11p9----
- -12b-----12hb----12hb----12hb----9b------9hb-----10b---------10--
- -----------------------------------------------------------------
- -----------------------------------------------------------------
- -----------------------------------------------------------------

- -----------------------------------------------------------------
- -7~------------------------------7~--------------6~--------------
- -10b-----10hb----10hb----10hb----10b-----10hb----9b------9hb-----
- -----------------------------------------------------------------
- -----------------------------------------------------------------
- -----------------------------------------------------------------

- -----------------------------------------------------------------
- -9~------------------------------6~------------------------------
- -12b-----12hb----12hb----12hb----9b------9hb-----9hb-----9hb-----
- -----------------------------------------------------------------
- -----------------------------------------------------------------
- -----------------------------------------------------------------

[Riff 5, Guitar 2] - [02:17] - [02:36]

[Riff 11] - [02:36] - [02:45]
- -------------0---------------------------------------------------
- -------------0---------------------------------------------------
- -------------3---------------------------------------------------
- -------------2---------------------------------------------------
- -------0-----1---------------------------------------------------
- -[6]---0---------------------------------------------------------

[Symbols]

PM... Palm Mute notes with (...) under them
AP... Alternate Pick notes with (...) under them
h     Hammer On
p     Pull Off
[ ]   Harmonic
/     Slide Up
\     Slide Down
x     Dead Note
b     Bend
hb    Hold Bend
pb    Pre-Bend
r     Release Bend
(x )  Play Notes x amount of times
~     Let Ring
\\\   Pick Slide Down
///   Pick Slide Up
/ 3 \ Notes are triplets (3 notes in the space of two)
w\    Whammy Bar Down
w/    Whammy Bar Up
wh    Whammy Bar Hold
T     Right Hand Tap
L     Left Hand Tap

:)

            
            
Suggest correction
Creating personal tab
Creating personal tab
You can edit any tab online and save it as your Personal.

You can edit, replace or remove any tab part or add personal notes – all changes will be seen only by you.

Personal tabs can be accessed anytime from any device, even offline.
Learn more »
Give kudos to tab author, rate the tab!
1 2 3 4 5
comments
print report bad tab
guest
You may want to rate the tab now too:
select rating
Wanna post a correction for this tab? Suggest correction