Oops, an error
Loading. Please wait.

Drown tab

version 1
version 1

Whole song

Interactive

500 views 9 this week
1 commentread comment
1 2 3 4 5
1 last vote to show rating
add to favorites
×
Save as Personal and add changes to this tab that will be seen only by you. Learn more ›
×
You can save this tab as Personal to edit and correct it or add notes. All changes will be seen only by you. Learn more »
launch autoscroll
font size
0
reset
how to read this tab
guitar tuner
edit
Autoscroll
slow
fast
+/-
esc
set tempo
stop
[INTRO:]

D|-----------------------------------------------------------------------------|
A|-----------------------------------------------------------------------------|
F|--------------------------3--------------------------------------------------|
C|---0~------------------------1--0--0~----------------------------------------|
G|---1~------------------------------1~----------------------------------------|
C|---1~------------------------------1~----------------------------------------|

D|-----------------------------------------------------------------------------|
A|-----------------------------------------------------------------------------|
F|-----------------------------------------------------------------------------|
C|---8-8-8-8-8-8-8-8-8-8-8-8-8-8-8-8-8-8-8-8-8-8-8-8-8-8-8-8-8-8-8-8-----------|
G|---5-5-5-5-5-5-5-5-5-5-5-5-5-5-5-5-6-6-6-6-6-6-6-6-6-6-6-6-6-6-6-6-----------|
C|---5-5-5-5-5-5-5-5-5-5-5-5-5-5-5-5-5-5-5-5-5-5-5-5-5-5-5-5-5-5-5-5-----------|

D|-----------------------------------------------------------------------------|
A|-----------------------------------------------------------------------------|
F|-----------------------------------------------------------------------------|
C|---1-1-1-1-1-1-1-1-1-1-1-1-1-1-1-1-------------------------------------------|
G|---1-1-1-1-1-1-1-1-1-1-1-1-1-1-1-1-5-5-5-5-5-5-5-5-5-5-5-5-5-5-5-5-----------|
C|---1-1-1-1-1-1-1-1-1-1-1-1-1-1-1-1-1-1-1-1-1-1-1-1-1-1-1-1-1-1-1-1-----------|

D|-----------------------------------------------------------------------------|
A|-----------------------------------------------------------------------------|
F|-----------------------------------------------------------------------------|
C|---8-8-8-8-8-8-8-8-8-8-8-8-8-8-8-8-8-8-8-8-8-8-8-8-8-8-8-8-8-8-8-8-----------|
G|---5-5-5-5-5-5-5-5-5-5-5-5-5-5-5-5-6-6-6-6-6-6-6-6-6-6-6-6-6-6-6-6-----------|
C|---5-5-5-5-5-5-5-5-5-5-5-5-5-5-5-5-5-5-5-5-5-5-5-5-5-5-5-5-5-5-5-5-----------|

D|-----------------------------------------------------------------------------|
A|-----------------------------------------------------------------------------|
F|-----------------------------------------------------------------------------|
C|---1-1-1-1-1-1-1-1-1-1-1-1-1-1-1-1-------------------------------------------|
G|---1-1-1-1-1-1-1-1-1-1-1-1-1-1-1-1-5-5-5-5-5-5-5-5-5-5-5-5-5-5-5-5-----------|
C|---1-1-1-1-1-1-1-1-1-1-1-1-1-1-1-1-1-1-1-1-1-1-1-1-1-1-1-1-1-1-1-1-----------|
                                                                               
D|-----------------------------------------------------------------------------|
A|-----------------------------------------------------------------------------|
F|-----------------------------------------------------------------------------|
C|-------------8~--------------------------------------------------------------|
G|---6~---5~--------5~---6-5---------------------------------------------------|
C|-----------------------------------------------------------------------------|
                                                                               
D|-----------------------------------------------------------------------------|
A|-----------------------------------------------------------------------------|
F|-----------------------------------------------------------------------------|
C|--------8~----------8-------8--------8~---------8-------8--------------------|
G|---5b----------5b-------5-------5b----------5b-------5-----------------------|
C|-----------------------------------------------------------------------------|

[PRE-VERSE 1]

D|-----------------------------------------------------------------------------|
A|-----------------------------------------------------------------------------|
F|--------8~----------8-------8--------8~---------8-------8--------------------|
C|---5b----------5b-------5-------5b----------5b-------5-----------------------|
G|-----------------------------------------------------------------------------|
C|-----------------------------------------------------------------------------|

D|-----------------------------------------------------------------------------|
A|-----------------------------------------------------------------------------|
F|-----------------------------------------------------------------------------|
C|--------8~----------8-------8--------8~---------8-------8--------------------|
G|---5b----------5b-------5-------5b----------5b-------5-----------------------|
C|-----------------------------------------------------------------------------|

D|-----------------------------------------------------------------------------|
A|-----------------------------------------------------------------------------|
F|--------8~----------8-------8--------8~---------8-------8--------------------|
C|---5b----------5b-------5-------5b----------5b-------5-----------------------|
G|-----------------------------------------------------------------------------|
C|-----------------------------------------------------------------------------|

D|-----------------------------------------------------------------------------|
A|-----------------------------------------------------------------------------|
F|-----------------------------------------------------------------------------|
C|---1---1----------1---1----------1-1-----------------------------------------|
G|---1---1----------1---1----------1-1-----------------------------------------|
C|---1---1----------1---1----------1-1-----------------------------------------|

[VERSE 1]

D|-----------------------------------------------------------------------------|
A|-----------------------------------------------------------------------------|
F|-----------------------------------------------------------------------------|
C|---1-1-1-1-----1-1-1-1-----1-1-1---1-1-1-1-----1-1-1-1-----1-1-1-------------|
G|---1-1-1-1-1-1-1-1-1-1-1-1-1-1-1---1-1-1-1-1-1-1-1-1-1-1-1-1-1-1-------------|
C|---1-1-1-1-1-1-1-1-1-1-1-1-1-1-1---1-1-1-1-1-1-1-1-1-1-1-1-1-1-1-------------|
        
D|-----------------------------------------------------------------------------|
A|-----------------------------------------------------------------------------|
F|-----------------------------------------------------------------------------|
C|---5-5-5-5-----5-5-5-5-----5-5-5---5-5-5-5-----5-5-5-5-----5-5-5-5-----------|
G|---5-5-5-5-5-5-5-5-5-5-5-5-5-5-5---5-5-5-5-5-5-5-5-5-5-5-5-5-5-5-5-----------|
C|---5-5-5-5-5-5-5-5-5-5-5-5-5-5-5---5-5-5-5-5-5-5-5-5-5-5-5-5-5-5-5-----------|
        
D|-----------------------------------------------------------------------------|
A|-----------------------------------------------------------------------------|
F|-----------------------------------------------------------------------------|
C|---1-1-1-1-----1-1-1-1-----1-1-1---1-1-1-1-----1-1-1-1-----1-1-1-------------|
G|---1-1-1-1-1-1-1-1-1-1-1-1-1-1-1---1-1-1-1-1-1-1-1-1-1-1-1-1-1-1-------------|
C|---1-1-1-1-1-1-1-1-1-1-1-1-1-1-1---1-1-1-1-1-1-1-1-1-1-1-1-1-1-1-------------|
                                         
D|-----------------------------------------------------------------------------|
A|-----------------------------------------------------------------------------|
F|-----------------------------------------------------------------------------|
C|---3~------------------------------3~----------------------------------------|
G|---3~------------------------------3~----------------------------------------|
C|---3~------------------------------3~----------------------------------------|

[CHORUS 1]
                                               
D|-----------------------------------------------------------------------------|
A|-----------------------------------------------------------------------------|
F|-----------------------------------------------------------------------------|
C|---1-1-1~------1~------1~--1-------1-1-1~------1~------1-1-1-----------------|
G|---1-1-1~--1-1-1~--1-1-1~--1-------1-1-1~--1-1-1~--1-1-1-1-1-----------------|
C|---1-1-1~--1-1-1~--1-1-1~--1-------1-1-1~--1-1-1~--1-1-1-1-1-----------------|
          
D|-----------------------------------------------------------------------------|
A|-----------------------------------------------------------------------------|
F|-----------------------------------------------------------------------------|
C|---5-5-5~------5~------5~--5-------5-5-5~------3/8~--7~----------------------|
G|---5-5-5~--5-5-5~--5-5-5~--5-------5-5-5~--0~------------8~------------------|
C|---5-5-5~--5-5-5~--5-5-5~--5-------5-5-5~--0~--------------------------------|
  
D|-----------------------------------------------------------------------------|
A|-----------------------------------------------------------------------------|
F|-----------------------------------------------------------------------------|
C|---1-1-1~------1~------1~--1-------1-1-1~------1~------1-1-1-----------------|
G|---1-1-1~--1-1-1~--1-1-1~--1-------1-1-1~--1-1-1~--1-1-1-1-1-----------------|
C|---1-1-1~--1-1-1~--1-1-1~--1-------1-1-1~--1-1-1~--1-1-1-1-1-----------------|
                     
D|-----------------------------------------------------------------------------|
A|------------------------------------------------------------------6~---------|
F|----------------------------------------------------------------------5~-----|
C|---5-5-5~------5~------5~--5-------5-5-5~------3/8~--7~-----3/8~-------------|
G|---5-5-5~--5-5-5~--5-5-5~--5-------5-5-5~--0~------------8~------------------|
C|---5-5-5~--5-5-5~--5-5-5~--5-------5-5-5~--0~--------------------------------|
        
D|-----------------------------------------------------------------------------|
A|-----------------------------------------------------------------------------|
F|-----------------------------------------------------------------------------|
C|--1~------------------------------7~--7-------7~--7-------7-7----------------|
G|--1~------------------------------3~--3-------3~--3-------3-3----------------|
C|--1~------------------------------3~--3-------3~--3-------3-3----------------|

[VERSE 2]

D|-----------------------------------------------------------------------------|
A|-----------------------------------------------------------------------------|
F|-----------------------------------------------------------------------------|
C|---1-1-1-1-----1-1-1-1-----1-1-1---1-1-1-1-----1-1-1-1-----1-1-1-------------|
G|---1-1-1-1-1-1-1-1-1-1-1-1-1-1-1---1-1-1-1-1-1-1-1-1-1-1-1-1-1-1-------------|
C|---1-1-1-1-1-1-1-1-1-1-1-1-1-1-1---1-1-1-1-1-1-1-1-1-1-1-1-1-1-1-------------|
        
D|-----------------------------------------------------------------------------|
A|-----------------------------------------------------------------------------|
F|-----------------------------------------------------------------------------|
C|---5-5-5-5-----5-5-5-5-----5-5-5---5-5-5-5-----5-5-5-5-----5-5-5-5-----------|
G|---5-5-5-5-5-5-5-5-5-5-5-5-5-5-5---5-5-5-5-5-5-5-5-5-5-5-5-5-5-5-5-----------|
C|---5-5-5-5-5-5-5-5-5-5-5-5-5-5-5---5-5-5-5-5-5-5-5-5-5-5-5-5-5-5-5-----------|
       
D|-----------------------------------------------------------------------------|
A|-----------------------------------------------------------------------------|
F|-----------------------------------------------------------------------------|
C|---1-1-1-1-----1-1-1-1-----1-1-1-1-1-1-1-1-----1-1-1-1-----1-1-1-1-----------|
G|---1-1-1-1-1-1-1-1-1-1-1-1-1-1-1-1-1-1-1-1-1-1-1-1-1-1-1-1-1-1-1-1-----------|
C|---1-1-1-1-1-1-1-1-1-1-1-1-1-1-1-1-1-1-1-1-1-1-1-1-1-1-1-1-1-1-1-1-----------|
   
D|-----------------------------------------------------------------------------|
A|-----------------------------------------------------------------------------|
F|-----------------------------------------------------------------------------|
C|---3-3-3-3-----3-3-3-3-------3-3-3-7~----7~----7~----7~----7-7---------------|
G|---3-3-3-3-3-3-3-3-3-3-3-3-3-3-3-3-3~--3-3~--3-3~--3-3~--3-3-3---------------|
C|---3-3-3-3-3-3-3-3-3-3-3-3-3-3-3-3-3~--3-3~--3-3~--3-3~--3-3-3---------------|


[BRIDGE]
                                   PM--------| 
D|-----------------------------------------------------------------------------|
A|-----------------------------------------------------------------------------|
F|-----------------------------------------------------------------------------|
C|---1-------------------------------------------1-----------------------------|
G|---1-------------------------------1-1-1-1-1---1-----------------------------|
C|---1-------------------------------1-1-1-1-1---1-----------------------------|

                                   PM--------| 
D|-----------------------------------------------------------------------------|
A|-----------------------------------------------------------------------------|
F|-----------------------------------------------------------------------------|
C|---1-1-----1~----------------------------------1-----------------------------|
G|---1-1-----1~----------------------1-1-1-1-1---1---------------1-1-----------|
C|---1-1-----1~----------------------1-1-1-1-1---1---------------1-1-----------|

                                   PM--------| 
D|-----------------------------------------------------------------------------|
A|-----------------------------------------------------------------------------|
F|-----------------------------------------------------------------------------|
C|---1/------------------------------1-1-1-1-1~------------1-------------------|
G|---1/------------------------------1-1-1-1-1~------1-1~--1-------------------|
C|---1/------------------------------1-1-1-1-1~------0-0~--1-------------------|

                                   PM--------| 
D|-----------------------------------------------------------------------------|
A|-----------------------------------------------------------------------------|
F|-----------------------------------------------------------------------------|
C|---5\------------------------------5-5-5-5-5~--------------------------------|
G|---5\------------------------------5-5-5-5-5~------0-0~--0~------------------|
C|---5\------------------------------5-5-5-5-5~------0-0~--0~------------------|

                                   PM--------| 
D|-----------------------------------------------------------------------------|
A|-----------------------------------------------------------------------------|
F|-----------------------------------------------------------------------------|
C|---1-1-----1-1-------1-1-1-1-1~-------------------------1--------------------|
G|---1-1-----1-1-------1-1-1-1-1~---1-1-1-1-1~------1-1~--1--------------------|
C|---1-1-----1-1-------1-1-1-1-1~---0-0-0-0-0~------0-0~--1--------------------|

                                   PM--------| 
D|-----------------------------------------------------------------------------|
A|-----------------------------------------------------------------------------|
F|-----------------------------------------------------------------------------|
C|---5-5-----5-5-------5-5-5-5-5-5-3-------------------------------------------|
G|---5-5-----5-5-------5-5-5-5-5-5-3~------------------------------------------|
C|---5-5-----5-5-------5-5-5-5-5-5-3~------------------------------------------|

CHORUS 2                                                                       
D|-----------------------------------------------------------------------------|
A|-----------------------------------------------------------------------------|
F|-----------------------------------------------------------------------------|
C|---1-1-1~------1~------1~--1-------1-1-1~------1~------1~--1-----------------|
G|---1-1-1~--1-1-1~--1-1-1~--1-------1-1-1~--1-1-1~--1-1-1~--1-----------------|
C|---1-1-1~--1-1-1~--1-1-1~--1-------1-1-1~--1-1-1~--1-1-1~--1-----------------|

D|-----------------------------------------------------------------------------|
A|-----------------------------------------------------------------------------|
F|-----------------------------------------------------------------------------|
C|---5-5-5~------5~------5-5-5-------5-5-5~------3/8~--7~----------------------|
G|---5-5-5~--5-5-5~--5-5-5-5-5-------5-5-5~--0~------------8~------------------|
C|---5-5-5~--5-5-5~--5-5-5-5-5-------5-5-5~--0~--------------------------------|

D|-----------------------------------------------------------------------------|
A|-----------------------------------------------------------------------------|
F|-----------------------------------------------------------------------------|
C|---1-1-1~------1~------1~--1-------1-1-1~------1~------1-1-1-----------------|
G|---1-1-1~--1-1-1~--1-1-1~--1-------1-1-1~--1-1-1~--1-1-1-1-1-----------------|
C|---1-1-1~--1-1-1~--1-1-1~--1-------1-1-1~--1-1-1~--1-1-1-1-1-----------------|
                           
D|-----------------------------------------------------------------------------|
A|-----------------------------------------------------------------------------|
F|-----------------------------------------------------------------------------|
C|---5-5-5~------5~------5~--5-------5-5-5~------3/8~--7~----------------------|
G|---5-5-5~--5-5-5~--5-5-5~--5-------5-5-5~--0~------------8~------------------|
C|---5-5-5~--5-5-5~--5-5-5~--5-------5-5-5~--0~--------------------------------|

D|-----------------------------------------------------------------------------|
A|-----------------------------------------------------------------------------|
F|-----------------------------------------------------------------------------|
C|---1-1-1~------1~------1~--1-------1-1-1~------1~------1-1-1-----------------|
G|---1-1-1~--1-1-1~--1-1-1~--1-------1-1-1~--1-1-1~--1-1-1-1-1-----------------|
C|---1-1-1~--1-1-1~--1-1-1~--1-------1-1-1~--1-1-1~--1-1-1-1-1-----------------|
                                 
D|-----------------------------------------------------------------------------|
A|-----------------------------------------------------------------------------|
F|-----------------------------------------------------------------------------|
C|---5-5-5~------5~------5~--5-------5-5-5~------3/8~--7~----------------------|
G|---5-5-5~--5-5-5~--5-5-5~--5-------5-5-5~--0~------------8~------------------|
C|---5-5-5~--5-5-5~--5-5-5~--5-------5-5-5~--0~--------------------------------|

D|-----------------------------------------------------------------------------|
A|-----------------------------------------------------------------------------|
F|-----------------------------------------------------------------------------|
C|---1-1-1~------1~------1~--1-------1-1-1~------1~------1-1-1-----------------|
G|---1-1-1~--1-1-1~--1-1-1~--1-------1-1-1~--1-1-1~--1-1-1-1-1-----------------|
C|---1-1-1~--1-1-1~--1-1-1~--1-------1-1-1~--1-1-1~--1-1-1-1-1-----------------|
                             
D|-----------------------------------------------------------------------------|
A|------------------------------------------------------------------6~---------|
F|----------------------------------------------------------------------5~-----|
C|---5-5-5~------5~------5~--5-------5-5-5~------3/8~--7~-----3/8~-------------|
G|---5-5-5~--5-5-5~--5-5-5~--5-------5-5-5~--0~------------8~------------------|
C|---5-5-5~--5-5-5~--5-5-5~--5-------5-5-5~--0~--------------------------------|
 
D|-----------------------------------------------------------------------------|
A|-----------------------------------------------------------------------------|
F|-----------------------------------------------------------------------------|
C|--1~-------------------------------------------------------------------------|
G|--1~-------------------------------------------------------------------------|
C|--1~-------------------------------------------------------------------------|

*****************************
PM = palm mute
 ~ = sustained
 / = slide up
 \ = slide down
*****************************
Suggest correction
Creating personal tab
Creating personal tab
You can edit any tab online and save it as your Personal.

You can edit, replace or remove any tab part or add personal notes – all changes will be seen only by you.

Personal tabs can be accessed anytime from any device, even offline.
Learn more »
Give kudos to tab author, rate the tab!
1 2 3 4 5
comments
print report bad tab
1 comment total.
0 reply
WoeVI 133 May 09, 2016 03:38 AM

Looks pretty good, missing a few verse lead doodles but other than that it seems right

guest
You may want to rate the tab now too:
select rating
Wanna post a correction for this tab? Suggest correction