Oops, an error
Loading. Please wait.

Isolation Tab

version 1
version 1

Whole song

3,082 views 3 this week
3 commentsread comments
1 2 3 4 5
please rate
add to favorites
launch autoscroll
font size
0
reset
how to read this tab
guitar tuner
Tab Pro tools
  • play this tab
  • loop segment
  • change instrument
  • show fretboard
  • metronome
×
Best way to learn
"Isolation"
Autoscroll
slow
fast
+/-
esc
set tempo
stop
Contributor
Difficulty
Tuning
intermediate
C G C F A D
----------------------------------------------------------------------------
                             Counterparts - Isolation
----------------------------------------------------------------------------
Tuning:Drop C
                               |   x4     |
e|-----6---66-666-66-666-66-666------------------|
B|---10-10-10101010101010101010------------------|
G|-10------10101010101010101010-7/5/7-------1010-|
D|-----------------------------------------------| x2
A|------------------------------5/3/5-------8-8--|
E|-----------------------------------0000--------|

                             |  x 4      | x6|
e|--------------------------------------------------------------------------|
B|--------------------------------------------------------------------------|
G|-7777-9999-1010-121210/12/10-10/9/10-----14-1212-1717-1010-9999-----------|
D|--------------------------------------------------------------------------|
A|-5555-7777-8888-1010-8/10/8---8/7/8------12-1010-1515-8888-7777-----------|
E|------------------------------------0000----------------------------------|

  | x 4      | ! !  ~              pm
e|-----------------5nh------------------|
B|-----------------5nh------------------|
G|10/9/10------7-7-5nh------------------|
D|-----------------5nh-------666666-00--| play opening riff again
A|-8/7/8-------5-5-5nh-------666666-00--|
E|-------0000------5nh--15/--666666-00--|

 | pm      |           |   pm   |             | pm        | | |
e|--------------------------------------------------------------------------|
B|--------------------------------------------------------------------------|
G|--------------------------------------------------------------------------|
D|-00000000--01-0-1-1----00000000----------333-0-000-00-00-01-01------------|
A|-00000000--01-0-1-1-5*-00000000--8-5-----333-0-000-00-00-01-01-5ph--------|
E|-00000000--01-0-1-1----00000000------7-3-333-0-000-00-00-01-01------------|
pm         |
e|---------------------------------------------------------------------------|
B|---------------------------------------------------------------------------|
G|----------12/15/14/10------------------------------------------------------|
D|-00000000------------ repeats these two bits-------------------------------|
A|-00000000-10/13/12/8-------------------------------------------------------|
E|-00000000------------------------------------------------------------------|

Begin the 1st riff again then...                |x5|
e|----------------------------------------------------|
B|----------------------------------------------------|
G|-999/101010---10101010-9999-1010-1717----------19---|
D|-10101010110----------------------------141514------| then 0 in time
A|-88888888888--88888888-7777-8888-1515-15-------17-/-|      0
E|-88888888888----------------------------------------|      0

alternat hitting open and first fret power chords then
e|-----------------------------------------------------------|
B|-------------------------------------------------------8---|
G|-7777---------------------9--10-----------------------10---|
D|-7777- or 3*-or-1-then --7--7--back to 1st riff  then-10---|
A|-5555-----------1-------8--8-------------------------------|
E|----------------1------------------------------------------|

e|-------------------------------------------------------------------------|
B|-------------------------------------------------------------------------|
G|-777777-9999-5555--------------------10----------------------------------|
D|-----------------x2 but last cord is-8- then 1st riff again--------------|
A|-555555-7777-3333--------------------8-----------------------------------|
E|-------------------------------------------------------------------------|


x alot
e|-------------------------------------------------------------------------|
B|------------------------1513--------------------1513---13t-10t11t--------|
G|-1712-----10--9109----------14---10--910--910910----12-------------------|
D|-----15-12--12-----8108--------12--12---12-------------------------------|
A|-------------------------------------------------------------------------|
E|-------------------------------------------------------------------------|

end on 9 of g string

t = tremolo picking
pm = palm mute
nh = natural harmonic
ph = pinched harmonic

Please give feedback this is 99% correct
comments
We did not receive enough feedback on this tab! Please rate:
print report bad tab
1 2 3 4 5
3 comments total.
0 reply
austinmandrell wrote on February 2 2011, 02:19 am

this is very confusing lol :/

0 reply
blackjeans183 wrote on February 2 2011, 01:08 pm

sorry lol....

0 reply
Andrew/WK wrote on July 21 2011, 08:55 pm

yeah it's very messy, can you put it on guitar pro?

I want to post or [tab]
guest
You may want to rate the tab now too:
select rating
Please do not post tabs as comments. Select "correction" instead!