Oops, an error
Loading. Please wait.

Sturdy Wings Tab

version 1
version 1

Whole song

Interactive

4,116 views 12 this week
1 commentread comment
1 2 3 4 5
accurate
x 7
add to favorites
launch autoscroll
font size
0
reset
how to read this tab
guitar tuner
Autoscroll
slow
fast
+/-
esc
set tempo
stop
Help us to improve Ultimate-Guitar.com Take our survey!
×
Author
Difficulty
Tuning
intermediate
C G C F A D
                Thanks for viewing my tab of Sturdy Wings it is
                  the first full tab in ug of this song i kno
                    its close but its still little off so
                     just have fun with it. i believe few
                      parts are indeed missing but,ill
                        find them out and update it
                               in the future.






Song : Sturdy Wings
Band : Counterparts
Album : Prophets
Tuned : Drop C


================
Things To Know
================
~ - Let ring
/ - Slide
\ - Slide
h - Hammer on
p - Pull off
ps - Pick silde
nh - Natural Harmonic



Intro
|-------------------------8---------------------------|
|------------6---6----6----6----6---------------------|
|------------9------9----------9----------------------|
|--10-10-10----------------------------0~--0~---------|
|---8--8--8----------------------------0~--0~--12\----|
|---7--8--8----------------------------0~--0~--12\----|

|---888888-----------------------|
|---666666-----------------------|
|---999999-----------------------|
|--------------------------------|
|-----------5nh-5nh-5nh-5nh------|
|--------------------------------|

strum the chords figure out the rythm.
|----------------8--------8-------------8------------------|
|--11------11-------6---6---6---6-6---6---6---6----8-------|
|--10---10----10------9-------9-----9-------9------9-------|
|---8---------------------------------------------10-------|
|----------------------------------------------------------|
|----------------------------------------------------------|

riff slides
|----------------------------------------------------------|
|----------------------------------------------------------|
|-10\9-7-9-10-14-12-9/10\9-10\9-7-9------------------------|
|-------------------------------------------------5/7------|
|--8\7-5-7--8-12-10-7/-8\7--8\7-5-7--8-----7------3/5------|
|--------------------------------------7-5---5-3-----------|

|-------------------------------------------------------------------|
|-------------------------------------------------------------------|
|-------------------------------------------------------------------|
|-----------3---3-----------3---3-----------------------------------|
|-------------7---------------7-------------------------------------|
|--0000000---------0000000---------12/--000000-00000000-0-0---------|


|-------------------------------------------------------------------------|
|-------------------------------------------------------------------------|
|-------------------------------------------------------------------------|
|-------------------------------------------------------------------------|
|--------------------------333333-333333333-3-3--11111111-11111111-1-1----|
|--00000000-000000000-0-0--333333-333333333-3-3--11111111-11111111-1-1----|


Play this and one below twice
|-----------------------------------------------------------------------|
|-----------------------------------------------------------------------|
|-----------------------------------------------------------------------|
|------------------------------------------7p5p3h5----------------------|
|----------------------------------8p7p5h7---------8p7p5h7--------------|
|--0-0-0-0-0-0-0-0-0-0-0-0-0-0-0-0-------------------------8p7p5h7------|

|--------------------------------------------------------------|
|--------------------------------------------------------------|
|--------------------------------------------------------------|
|-----------------------------------101010-10-10---------------|
|------------------------------------8-8-8--8--8---------------|
|--0-0-0-0-0-0-0-0-0-0-0-0-0-0-0-0---8-8-8--8--8--77777-333----|

2nd time
|--------------------|
|--------------------|
|--------------------|
|--------------------|
|--------------------|
|--77777-333---------|

breakdown
|-----------------------------------------------------------------------|
|----------------------------------------------------------10-10-10-----|
|----------------------------------------------------------10-10-10-----|
|--------------------------------10101010-101010-10101010---8--8--8-----|
|--0-0000-0000-0000-0000-0000-0---8-8-8-8--8-8-8--8-8-8-8---8--8--8-----|
|--0-0000-0000-0000-0000-0000-0---8-8-8-8--8-8-8--8-8-8-8---8--8--8-----|

Pre Breakdown
|--------------------|
|--------------------|
|--------------------|
|--------1~----------|
|--------1~----------|
|--7777--1~----------|

Breakdown
|------------------------------------------------------------8---------|
|------------------------------------------------------6---6---6-------|
|--------------------------------------------------------9-------9-----|
|-----------------------------10101010-101010-10101010-----------------|
|--00-000-000-000-000-000-00---8-8-8-8--8-8-8--8-8-8-8-----------------|
|--00-000-000-000-000-000-00---8-8-8-8--8-8-8--8-8-8-8-----------------|

strum the chords figure out the rythm.
|----------------8--------8-------------8------------------|
|--11------11-------6---6---6---6-6---6---6---6----8-------|
|--10---10----10------9-------9-----9-------9------9-------|
|---8---------------------------------------------10-------|
|----------------------------------------------------------|
|----------------------------------------------------------|

riff slides
|---------------------------------------------------------|
|---------------------------------------------------------|
|-10\9-7-9-10-14-12-9/10\9-10\9-7-9-----------------------|
|------------------------------------------------5/7------|
|--8\7-5-7--8-12-10-7/-8\7--8\7-5-7--8-----7-----3/5------|
|--------------------------------------7-5---5-3----------|

Pre Breakdown
|------------------
|-------6~-------------------------------10~-------------------|
|----------9~--------------------------------10~---------------|
|--0~---------7~-0~-----------------0~-----------12~-----------|
|--0~------------0~-----------------0~----------------ps-------|
|--0~------------0~--111111111111---0~----------------ps-------|

Breakdown
|---------------------------------------------------------------|
|---------------------------------------------------666666------|
|---------------------------------------------------777777------|
|---------------------------------------------------------------|
|---------00-00000-0-000-00000-00-000-0000-0000-000-555555------|
|--11-11--00-00000-0-000-00000-00-000-0000-0000-000-------------|


Skipped the section before this
because it take me day to figure it out
so it mean time i think this is rythm to that
and this solo riff coming up next.


Figure rythm out yourself
|----------------------|
|----------------------|
|----------------------|
|----------------------|
|--1----3----5---------|
|--1----3----5---------|


solo
|--------------------------------------------------------|
|---------------------------------------11p10------------|
|--7h8h10-8h10h12-10--7h8h10-8h10h12-10-------12p10------|
|--------------------------------------------------------|
|--------------------------------------------------------|
|--------------------------------------------------------|

solo ending
|---------------------13-13-13-8-10--6~-----|
|-------------------------------------------|
|--7h8h10-8h10h12-10------------------------|
|-------------------------------------------|
|-------------------------------------------|
|-------------------------------------------|

I Know That this tab needs work in spots but
People asked me to try and tab it out being
ive only heard this song 5 times... but
i will surely update this tab every chance
i get to thanks for viewing hope that this 
really helped you out or gave you an idea were to start!
Rate and comment it.




Suggest correction
comments
print report bad tab
1 comment total.
0 reply
Meelad360 80 wrote on March 26 2011, 10:18 pm

Not even close to correct

guest
You may want to rate the tab now too:
select rating
Please do not post tabs as comments. Select "correction" instead!