Oops, an error
Loading. Please wait.

The Disconnect Tab

version 1
version 1

Whole song

Interactive

15,907 views 21 this week
4 commentsread comments
1 2 3 4 5
x 10
add to favorites
launch autoscroll
font size
0
reset
how to read this tab
guitar tuner
Autoscroll
slow
fast
+/-
esc
set tempo
stop
Help us to improve Ultimate-Guitar.com Take our survey!
×
Author
Difficulty
Tuning
intermediate
C G C F A D
The Disconnect by Counterparts
Drop C

Intro is by LeeMaliaisGod
E-mail: blakefimrite@hotmail.com

Rest of song done by watching Marco Bekemeier (http://www.youtube.com/watch?v=AkxC34HCpn4) and ear
It sounds right to me, let me know though.  Watch video to see anything that I 
tabbed wrong or you think could be different, thanks.

*=muted
t=tremolo

x|----------------------------------------------------------------|
x|----------------------------------------------------------------|
x|-0-0-0-0-0-0-0-0---0-0-0--0-0-0---------------------------------|
x|-2-2-2-2-2-2-2-2---4-4-4--5-5-5--0-0-0--0-----------riff x2-----|
x|---------------------------------5-5-5--3-x15-------------------|
x|----------------------------------------------------------------|
   * * * * * * * *   * * *  * * *  * * *  * 
then...
x|-0--0--0----------------------------------0-------0-------------------|
x|-0--0--0----------------------------------0-------0-------------------|
x|-2--2--2---------0-x8---------------------0-------0-------------------|
x|-4--4--4---2-2---------x-x-x-x---2-2---2-2-2---2-2-2-4-4-4-5-5-5------|
x|-3--3--3---2-2---------x-x-x-x---2-2---2-2-2---2-2-2-------------5-5--|
x|-0--0--0---2-2---------x-x-x-x---2-2---2-2-2---2-2-2------------------|

x|----0------0------0------0----|----------------------|--------------------------------10-------|
x|----0------0------0------0----|----------------------|----------------------------8------8-----|
x|-4-4-4--4-4-4-----0------0----|-7-7-7----------------|-7-7-7--------------------11-11------11--|
x|-2-2-2--2-2-2--4-4-4--4-4-4---|---------5-5-5-4-4----|--------5-5-5-9-9-9----------------------|
x|---------------3-3-3--3-3-3---|----------------------|-----------------------------------------|
x|------------------------------|----------------------|-----------------------------------------|
2nd time                                       4th time
x|------------------------------------------|
x|------------------------------------------|
x|-------------5--------------------5-------|
x|-2-------3-2-x-2------x-x-----3-2-x-1-1-1-|
x|-2-------3-2-3-2------x-x-----3-2-3-1-1-1-|
x|-2-------3-2---2------x-x-----3-2---1-1-1-|

x|----------------------------------------|-------------------|
x|----------------------------------------|-------------------|
x|------------------------------------5---|-----5-------------|
x|--------------------------------3-2-x-0-|-3-2-x-0--1-1--1-1-|
x|-----3-----3-----3-----3-----3--3-2-3-0-|-3-2-3-0--1-1--1-1-|
x|-2-2---2-2---2-2---2-2---2-2----3-2---0-|-3-2---0--1-1--1-1-|

x|----------------------------------------------------------------------------------|
x|----------------------------------------------------------------------------------|
x|----------------------------------------------------------------------------------|
x|-12-12--12--12--9-9--9--9--17-17--17--17--16-16--16--16--12-12--12--12--9-9--9--9-|
x|-10-10--10--10--7-7--7--7--14-14--14--14--12-12--12--12--10-10--10--10--7-7--7--7-|
x|-10-10--10--10--7-7--7--7--14-14--14--14--12-12--12--12--10-10--10--10--7-7--7--7-|

x|-------------------------------------|--------------------------|
x|-------------------------------------|--------------------------|
x|---------------------------------5---|-----5--------------------|
x|-----------------------------3-2-x-0-|-3-2-x-0--1-1--1-1--1-1-1-|
x|--3-----3-----3-----3-----3--3-2-3-0-|-3-2-3-0--1-1--1-1--1-1-1-|
x|-2-2---2-2---2-2---2-2---2-2-3-2---0-|-3-2---0--1-1--1-1--1-1-1-|

x|-------------------------------------------------------------------------|-----------------------0-|
x|-------------------------------------------------------------------------|-----------------------0-|
x|-------------------------------------------------------------------------|------------5----------0-|
x|-----12-----9------17-------16-------12-----9---3-2--3-3-2--3-3-2--3-3-2-|-3-2-2--3-2-x-3-2-2--2---|
x|---10--10--7-7---14--14---12--12---10--10--7-7--3-2--3-3-2--3-3-2--3-3-2-|-3-2-2--3-2-3-3-2-2--2---|
x|-10-------7----14-------12-------10-------7-----3-2--3-3-2--3-3-2--3-3-2-|-3-2-2--3-2---3-2-2--2---|  


x|--------------------------------0-|
x|--------------------------------0-|
x|--------------------------------0-|
x|------------5-----------------5---|
x|-3-2-2--3-2-x-1-1-1--111--3-2-x---|
x|-3-2-2--3-2-3-1-1-1--111--3-2-3---|
x|-3-2-2--3-2---1-1-1--111--3-2-----|
                                           (those are 1s)               

x|-0-0--0-0--0-0-0--0-0-0---------0-0--0-0--------0--0-0--0-0-0---------------|
x|-0-0--0-0--0-0-0--0-0-0---------0-0--0-0--------0--0-0--0-0-0---------------|
x|-0-0--0-0--0-0-0--0-0-0---------0-0--0-0--------0--0-0--0-0-0---------------|
x|----------------------------------------------------------------------------|
x|-1-1--1-1--1-1-1--1-1-1--3-2-3--1-1--1-1--3-1-2----1-1--1-1-1--3-1-2--2-2-2-|
x|-1-1--1-1--1-1-1--1-1-1--3-2-3--1-1--1-1--3-1-2----1-1--1-1-1--3-1-2--2-2-2-|
x|-1-1--1-1--1-1-1--1-1-1--3-2-3--1-1--1-1--3-1-2----1-1--1-1-1--3-1-2--2-2-2-|
                                                                        * * *

x|-------------------------------------------------------------------------|
x|-------------------------------------------------------------------------|You can play
x|-------------------------------------------------------------------------|with the high strings open
x|-4-4-4--4-4-4--5-5-5--5-5-5--5\7-4h5--4-4-4--4-4-4--5-5-5--5-5-5--0------|whateva sounds better to you
x|-2-2-2--2-2-2--2-2-2--2-2-2-----------2-2-2--2-2-2--2-2-2--2-2-2--0------|
x|-2-2-2--2-2-2--2-2-2--2-2-2-----------2-2-2--2-2-2--2-2-2--2-2-2--0------|

x|---------------------------------------------------------------------------------------------|
x|---------------------------------------------------------------------------------------------|
x|-5-5-5--5-5-5--7-7-7--7-7-7------------------------------------------------------------------|
x|-2-2-2--2-2-2--4-4-4--4-4-4--2-2-2--2-2-2--2-2-2--2-2-2--5\7-4h5--2-2-2--2-2-2--2-2-2--0-0-0-|
x|-3-3-3--3-3-3--5-5-5--5-5-5--2-2-2--2-2-2--2-2-2--2-2-2-----------2-2-2--2-2-2--2-2-2--0-0-0-|
x|-----------------------------2-2-2--2-2-2--2-2-2--2-2-2-----------2-2-2--2-2-2--2-2-2--0-0-0-|

x|------------------------------0------------------0------------------|
x|------------------------------0-(let these ring)-0-(strum upwards)--|
x|-5-5-5--5-5-5--7-7-7--7-7-7---0------------------0------------------|In this part just fiddle around
x|-2-2-2--2-2-2--4-4-4--4-4-4---5\7/4\5------------5------------------|with the slided chords
x|-3-3-3--3-3-3--5-5-5--5-5-5---7\9/5\7------------7------------------|
x|--------------------------------------------------------------------|

x|-7t--10t-7t----(x2)---------------------------------------------|
x|---8t------10t---------------------------------------------3----|
x|-----------------5-5-5-5-5-5--7-7-7-7-7-7-----------------------|
x|-----------------2-2-2-2-2-2--4-4-4-4-4-4--2-2-2-2-2-2----5-5---|
x|-----------------3-3-3-3-3-3--5-5-5-5-5-5--2-2-2-2-2-2---5---5--|
x|-------------------------------------------2-2-2-2-2-2--0-------|

x|----------------------------0---0-------------|
x|----------------------------0---0-------------|
x|-5-5-5-5-5-5--7-7-7-7-7-7---0---0-------------|
x|-2-2-2-2-2-2--4-4-4-4-4-4--2-2-2-0-0-0-xxxxxx-|
x|-3-3-3-3-3-3--5-5-5-5-5-5--2-2-2-0-0-0-xxxxxx-|
x|---------------------------2-2-2-0-0-0-xxxxxx-|
(This part plays behind the tremolo minus the xs)

x|-7t--10t-7t-----7t---10t-7t---7t--10t-7t-----------0-0--0-0-0------0-0--0-0-0-------|
x|---8t------10t----8t-------8t---8t------10t--------0-0--0-0-0------0-0--0-0-0-------|
x|---------------------------------------------------0-0--0-0-0------0-0--0-0-0-------|
x|---------------------------------------------3-2-2-----------3-2-2------------1-1-1-|
x|---------------------------------------------3-2-2-----------3-2-2------------1-1-1-|
x|---------------------------------------------3-2-2-----------3-2-2------------1-1-1-|
Suggest correction
comments
print report bad tab
4 comments total. Showing first comments.
0 reply
miil0sh 261 May 28, 2013 01:10 PM

The oart that's
x|--3----3---
x|-2-2--2-2--
is supposed to be
x|-----3------3--
x|-2-2----2-2----
Just realized I messed it up

+1 reply
lachlansutton77 10 Jun 01, 2013 02:22 AM

dude thanks so much for this!

-1 reply
thedocter17 36 Jun 12, 2013 05:52 PM

you are a wonderful person!
just curious as to why there are 7 lines here?
x|-0-0--0-0-
x|-0-0--0-0-
x|-0-0--0-0-
x|----------
x|-1-1--1-1-
x|-1-1--1-1-
x|-1-1--1-1-

guest
You may want to rate the tab now too:
select rating
Wanna post a correction for this tab? Suggest correction