Oops, an error
Loading. Please wait.

A Long December Tab

version 2
version 2

Whole song

Interactive

26,258 views 18 this week
1 commentread comment
1 2 3 4 5
worth learning
x 4
add to favorites
launch autoscroll
font size
0
reset
how to read this tab
guitar tuner
Tab Pro tools
  • play this tab
  • loop segment
  • change instrument
  • show fretboard
  • metronome
Autoscroll
slow
fast
+/-
esc
set tempo
stop
Contributor
here it is..its easy to play..most of this is my work.except for some of the fills



C    G                    D         Am
A long December and there's reason to believe
           C           G               C  *(Gtr plays fill 1)
Maybe this year will be better than the last
Am      C           G                   D                Am
I can't remember the last thing that you said as you were leavin'
        G             C
Now the days go by so fast



Chorus:

Guitar plays this over the chorus         
|--------1-----------1-----|--------3----------3--|
|--1--1-----1--1--1-----1--|--3--3-----3----------|
|--2-----------1-----------|--3-----------3/5-----|
|--3-----------3-----------|--5-------------------|
|--3-----------3-----------|--5-------------------|
|--------------------------|----------------------|
                                          ^^^^^^^
                                          These notes played 1st
                                          time only
         G               C            Am             
And it's one more day up in the canyons
         G                 C          Am
And it's one more night in Hollywood
       G                  C         Am
If you think that I could be forgiven... I wish you would

G     C
Na na na na
Am          C
Na na na na na na na na na
G     C    Am
Na na na na yeah

he smell of hospitals in winter       (w/ fill 1, then fill 2 here)
And the feeling that it's all a lot of oysters, but no pearls *
All at once you look across a crowded room
To see the way that light attaches to a girl *(and fill 3 here)
And it's one more day up in the canyons
And it's one more night in Hollywood
If you think you might come to California... I think you should

Solo: 
---|--------------------------------------|
---|--------------------------------------|
2--|--2--2--2--0--2-----2--2--2--2--0--2--|
---|--------------------------------------|
---|--------------------------------------|
---|--------------------------------------|



|-----------------------------------------------|
|-----------------------------------------------|
|--0--2--2--0--2--2--0--2--3--3--3--3--3--2--0--|
|-----------------------------------------------|
|-----------------------------------------------|
|-----------------------------------------------|



|--------------------------------------------------|-----|
|--------------------------------------------------|-----|
|--0--2--2--0--2-----0--2--2--2--2--0--2--0-----0--|-----|
|--------------------------------------------3-----|--3--|
|--------------------------------------------------|-----|
|--------------------------------------------------|-----|

Drove up to Hillside Manor sometime after two a.m.
And talked a little while about the year
I guess the winter makes you laugh a little slower,
Makes you talk a little lower about the things you could not
        show her

And it's been a long December and there's reason to believe
Maybe this year will be better than the last *(fill 2)
I can't remember all the times I tried to tell myself
To hold on to these moments as they pass *(fill 4)

And it's one more day up in the canyon *(fill 5, played w/ a slide)
And it's one more night in Hollywood
It's been so long since I've seen the ocean... I guess I should


 Fills: 1       2           3              4          5
|----------|-|---------|-|--------10--|-|-----6--|-|--------|
|----------|-|--3/4\3--|-|------------|-|-----6--|-|--8/10--|
|-------3--|-|--3/5\3--|-|--7/10------|-|-----7--|-|--8/10--|
|-------3--|-|---------|-|------------|-|--8--8--|-|--------|
|--1/3-----|-|---------|-|------------|-|--------|-|--------|
|----------|-|---------|-|------------|-|--------|-|--------|


Repeat guitar solo, except for last measure, then continue with:
|---------------------------|--------------------------|
|----------6-------6--8--6--|--10--10----10------------|
|-----5/7-----5/7-----------|--12b(14)--(14)r12p10h12--|
|--3------------------------|--------------------------|
|---------------------------|--------------------------|
|---------------------------|--------------------------|
                                                                      

                                                                      
|-------------------------------------------|----------------13--|
|--10--10---13--13-------10-----------------|---------10/13------|
|--12b(14)------12b(14)--12b(14)--12p10h12--|--10~~~-------------|
|-------------------------------------------|--------------------|
|-------------------------------------------|--------------------|
|-------------------------------------------|--------------------|
                                                                      

                                                                      
|---------17b(19)r17--|
|--13/15--------------|
|---------------------|
|---------------------|
|---------------------|
|---------------------|

comments...email me ....timmer123@snowboard.com
comments
print report bad tab
1 comment total.
0 reply
The_Bakes wrote on March 10 2013, 08:04 am

Thanks. Appreciated!

I want to post or [tab]
guest
You may want to rate the tab now too:
select rating
Please do not post tabs as comments. Select "correction" instead!