Oops, an error
Loading. Please wait.

A Murder Of One Tab

version 1
version 1

Whole song

Interactive

4,228 views 6 this week
no commentswrite comment
1 2 3 4 5
please rate
add to favorites
launch autoscroll
font size
0
reset
how to read this tab
guitar tuner
Autoscroll
slow
fast
+/-
esc
set tempo
stop
Help us to improve Ultimate-Guitar.com Take our survey!
×
Author
-------------------------------------------------------------------------------
                             A Murder of One - Counting Crows
-------------------------------------------------------------------------------

Tuning: eADGBE

Intro/Chorus
e|-----------6---------------4-------------7---------------------------------|
B|-----------7---------------7-------------7---------------------------------|
G|-----------6---------------6-------------8---------------------------------|
D|---------------------------------------------------------------------------|
A|---------------------------------------------------------------------------|
E|---------------------------------------------------------------------------|


Verse: x1 (You only play this one time throughout each verse, so its played pretty slow. 
can play this with just the chords but i think it sounds a lot better with the little 
in between)
e|-----------------------------------------------------------------------------|
B|-------------------------------------------------2---------------------------|
G|----6----\4-------4--------4/6--6---\4--------4-----4------4\6---------------|
D|----6----\4-------4-----4-------6---\4--------4--------4---4\6---------------|
A|----4-------------2-------------4-------------2------------------------------|
E|-----------------------------------------------------------------------------|

e|---------------------------------------------------------------------------|
B|-----------------------2---------------------------------------------------|
G|----6--------------(4)----4------4\6---6-------------4---------------------|
D|----6----6--4--3----4--------4---4\6---6---6--4--3---4---------------------|
A|----4--------------(2)-----------------4-------------2---------------------|
E|---------------------------------------------------------------------------|

Solo Things: (repeat as many times necessary)
e|---------------------------------------------------------------------------|
B|---------7-----6--7--7-------6--7--7-----6--7--7-----6--7--7---------------|
G|------------6-----------6-------------6-----------6------------------------|
D|---------------------------------------------------------------------------|
A|---------------------------------------------------------------------------|
E|---------------------------------------------------------------------------|
Suggest correction
Give kudos to tab author, rate the tab!
1 2 3 4 5
comments
print report bad tab
guest
You may want to rate the tab now too:
select rating
Wanna post a correction for this tab? Suggest correction