Oops, an error
Loading. Please wait.

Big Yellow Taxi Bass Tab

9,092 views 24 this week
1 commentread comment
1 2 3 4 5
please rate
add to favorites
launch autoscroll
font size
0
reset
guitar tuner
Tab Pro tools
  • play this tab
  • loop segment
  • change instrument
  • show fretboard
  • metronome
×
Best way to learn
"Big Yellow Taxi"
Autoscroll
slow
fast
+/-
esc
set tempo
stop
Contributor
My first song learned by ear (with some help from my music teacher). The verse is 
correct,
 but I had trouble with the chorus. Maybe someone will correct it. listen to the song 
exact timing.
Done in Standard tuning.

Verse;
---------------------|
---------6~----------|
---6---6-------------|
-----4---------------|

Now, here I just tab the progression, not the actual bass part, had some difficulty with that.

Chorus:

---------------------------------|
--6~-5~-3~-1~----1~-6~-----------|
--------------3~-----------------|
---------------------------------|
Hope this helps. 
comments
We did not receive enough feedback on this tab! Please rate:
print report bad tab
1 2 3 4 5
1 comment total.
0 reply
Andsome wrote on January 13 2011, 04:01 pm

I'm in the process of learning this for my band and I'm pretty sure that c (3~) in the chorus should be a c# (4~). And once you've played there it makes sense to go to A6 rather than D1.


---------------------------------|
--6~-5~-3~-1~-------------6~-----|
--------------4~-6~----6---------|
--------------------4------------|

I want to post or [tab]
guest
You may want to rate the tab now too:
select rating
Please do not post tabs as comments. Select "correction" instead!