Oops, an error
Loading. Please wait.

Carriage Tab

2,981 views 3 this week
no commentswrite comment
1 2 3 4 5
x 3
add to favorites
launch autoscroll
font size
0
reset
how to read this tab
guitar tuner
Autoscroll
slow
fast
+/-
esc
set tempo
stop
Help us to improve Ultimate-Guitar.com Take our survey!
×
-------------------------------------------------------------------------------
                             SONG NAME - Band Name
-------------------------------------------------------------------------------
Tabbed by:Rocky Marcum
Email:
First tab so learning how to type it up I'll probly add the whole thing when I get more time.
Tuning:
           C      Gm
e|-----0-------0---------------------------------------------------------------------|
B|----------------3---------3--------------------------------------------------------|
G|-----------0----------3-------7---------7----- 2---------2-------------------------|
D|--------2----------0----------------8-----------------3----------------------------|
A|-----3---------------------------8-----------------3-------------------------------|
E|----------------3-------------6----------------1-----------------------------------|
Suggest correction
Give kudos to tab author, rate the tab!
1 2 3 4 5
comments
print report bad tab
guest
You may want to rate the tab now too:
select rating
Wanna post a correction for this tab? Suggest correction