Oops, an error
Loading. Please wait.

Colorblind Tab

version 1
version 1

Whole song

Interactive

57,250 views 1 this week
8 commentsread comments
1 2 3 4 5
x 18
add to favorites
launch autoscroll
font size
0
reset
how to read this tab
guitar tuner
×
Best way to learn
"Colorblind"
Autoscroll
slow
fast
+/-
esc
set tempo
stop
This riff is played throughout pretty much the whole song.
Note:  This song is played on the piano, but this is how it should sound when played
on the guitar.

---------2-----------------4--------
---0---0---0---0-----0---0---0---0--
-1---1-------1-----1---1-------1----
------------------------------------
-------------------0----------------
-4----------------------------------

---------0---------0-------0---------
---0---0---0---0-----1---1---1---1---
-1---1-------1---------0-------0-----
-------------------------------------
-------------------0-------0---------
-0-----------------------------------
Suggest correction
comments
print report bad tab
8 comments total. Showing first comments.
+1 reply
chasingamy11 0 May 05, 2002 08:00 PM

wow man i agree with you, he likes crap music. I mean offspring are real hardcore and arnt played on every pop station and liked by three year olds. Also il nino arnt a lame copy of korn and is real intelligent music. You have awsome taste in music.

-2 reply
vvvmell 10 May 05, 2002 08:00 PM

OUCH!!I love it chasingamy

0 reply
amnesiac1984 10 Jun 29, 2002 08:00 PM

This riff is played throughout pretty much the whole song.
Note: This song is played on the piano, but this is how it should sound when played
on the guitar.

with my recording, this works with a capo on the 1st fret to make it in tune with the song. BTW This is my first tab posting and it is only a modified version of the previous post, which i felt didn't work properly.


---------2-----------------4--------
---0---0---0---0-----0---0---0---0--
-1---1-------1-----1---1-------1----
------------------------------------
-------------------0----------------
-4----------------------------------

---------0-----------------0---------
---0---0---0---0-----0---0---0---0---
-1---1-------1-----1---1-------1-----
-------------------------------------
-------------------0-------0---------
-0-----------------------------------

guest
You may want to rate the tab now too:
select rating
Wanna post a correction for this tab? Suggest correction