Oops, an error
Loading. Please wait.

Colorblind Tab

version 4
version 4

Whole song

Interactive

119,553 views 111 this week
12 commentsread comments
1 2 3 4 5
x 55
add to favorites
launch autoscroll
font size
0
reset
how to read this tab
guitar tuner
Autoscroll
slow
fast
+/-
esc
set tempo
stop
Help us to improve Ultimate-Guitar.com Take our survey!
×
Author
Difficulty
novice
There are only non - capo versions to find so I decided to make a capo version of this
song. This way it sounds realy nice. enjoy it.

After three years I finally improved this tab, thank for the suggestions!!

artist: counting crows
song: colorblind
album: "this desert life" / "cruel intentions" o.s.t.
Tuning: Standart.
Capo: on the 5th fret.

[Intro]

E|---------------------------0--------------------------------|
B|-----------3-------------------------------1-------1--------|
G|-----0---0---0---0---0---0---0---0---0---0---0---0---0------|
D|--2----2-------2---2---2-------2---2---2-------2-------2----|
A|-----------------------------------3-----------3------------|
E|--0----------------1-----------------------1----------------|
                                               get slower here.

[Verse 1 and 2]

E|---------------------------0-------------------------------------|
B|-----------3-------------------------------1-------1------1------|
G|-----0---0---0---0---0---0---0---0---0---0---0---0---0--0---0--0-|
D|--2----2-------2---2---2-------2---2---2-------2-------2------2--|
A|-----------------------------------3-----------3-------3---------|
E|--0----------------1-----------------------1-----------|---------|
                                             | get slower|here at verse 1
                                  get slower |here at verse 2, 3 and 4 

[Outro]

E|------------|
B|---1--------|
G|-----0---0--| 
D|-------2----|
A|------------|
E|------------|
Suggest correction
comments
print report bad tab
12 comments total. Showing first comments.
0 reply
Zmajo 10 Sep 10, 2005 12:00 AM

hah, this real works..moreover, I can play the whole song cause im not tired of holding really tough. Good work,thx

+1 reply
ystuk85 21 Jul 17, 2006 07:47 AM

very good tho i think the 1 on the b string is hit 3 or 4 times? ie that little bit of the riff is repeated 3 times not 2?

0 reply
rhinoduff66 30 Jul 30, 2006 05:43 AM

First of great tab this is in fact where I learned the song from I gave it 5 stars.....but I experimented with it and made a minor adjustment with adding a note on the A string fifth fret at the end, and extended your ending one more rep. it look like this....I'm not correcting just suggesting...keep of the good work
E|---------------------------0------------------------------------|
B|-----------3-------------------------------1-------1-------1----|
G|-----0---0---0---0---0---0---0---0---0---0---0---0---0---0---0--|
D|--2----2-------2---2---2-------2---2---2-------2-------2------2-|
A|-------------------x---------------3-------3--------------------|
E|--0----------------1--------------------------------------------|

guest
You may want to rate the tab now too:
select rating
Wanna post a correction for this tab? Suggest correction