Oops, an error
Loading. Please wait.
We have an official Colorblind tab made by UG professional guitarists. Check out the tab »
×
123,918 views 102 this week
14 commentsread comments
1 2 3 4 5
x 61
add to favorites
×
Save as Personal and add changes to this tab that will be seen only by you. Learn more ›
×
You can save this tab as Personal to edit and correct it or add notes. All changes will be seen only by you. Learn more »
launch autoscroll
font size
0
reset
how to read this tab
guitar tuner
edit
Autoscroll
slow
fast
+/-
esc
set tempo
stop
Author
Difficulty
There are only non - capo versions to find so I decided to make a capo version of this
song. This way it sounds realy nice. enjoy it.

After three years I finally improved this tab, thank for the suggestions!!

artist: counting crows
song: colorblind
album: "this desert life" / "cruel intentions" o.s.t.
Tuning: Standart.
Capo: on the 5th fret.

[Intro]

E|---------------------------0--------------------------------|
B|-----------3-------------------------------1-------1--------|
G|-----0---0---0---0---0---0---0---0---0---0---0---0---0------|
D|--2----2-------2---2---2-------2---2---2-------2-------2----|
A|-----------------------------------3-----------3------------|
E|--0----------------3-----------------------1----------------|
                                       get slower | here.

[Verse 1 and 2]

E|---------------------------0-------------------------------------|
B|-----------3-------------------------------1-------1------1------|
G|-----0---0---0---0---0---0---0---0---0---0---0---0---0--0---0--0-|
D|--2----2-------2---2---2-------2---2---2-------2-------2------2--|
A|-----------------------------------3-----------3-------3---------|
E|--0----------------3-----------------------1---------------------|

                                              get slower | here at verse 1
                                  get slower | here at verse 2, 3 and 4 

[Outro]

E|------------|
B|---1--------|
G|-----0---0--| 
D|-------2----|
A|------------|
E|------------|

            
            
Suggest correction
Creating personal tab
Creating personal tab
You can edit any tab online and save it as your Personal.

You can edit, replace or remove any tab part or add personal notes – all changes will be seen only by you.

Personal tabs can be accessed anytime from any device, even offline.
Learn more »
comments
print report bad tab
14 comments total. Showing first comments.
0 reply
Zmajo 10 Sep 09, 2005 08:00 PM

hah, this real works..moreover, I can play the whole song cause im not tired of holding really tough. Good work,thx

+1 reply
ystuk85 21 Jul 17, 2006 03:47 AM

very good tho i think the 1 on the b string is hit 3 or 4 times? ie that little bit of the riff is repeated 3 times not 2?

0 reply
rhinoduff66 30 Jul 30, 2006 01:43 AM

First of great tab this is in fact where I learned the song from I gave it 5 stars.....but I experimented with it and made a minor adjustment with adding a note on the A string fifth fret at the end, and extended your ending one more rep. it look like this....I'm not correcting just suggesting...keep of the good work
E|---------------------------0------------------------------------|
B|-----------3-------------------------------1-------1-------1----|
G|-----0---0---0---0---0---0---0---0---0---0---0---0---0---0---0--|
D|--2----2-------2---2---2-------2---2---2-------2-------2------2-|
A|-------------------x---------------3-------3--------------------|
E|--0----------------1--------------------------------------------|

guest
You may want to rate the tab now too:
select rating
Wanna post a correction for this tab? Suggest correction