Oops, an error
Loading. Please wait.

Hangin Around tab

version 4
version 4

Whole song

Interactive

45,668 views 9 this week
2 commentsread comments
1 2 3 4 5
x 12
add to favorites
×
Save as Personal and add changes to this tab that will be seen only by you. Learn more ›
×
You can save this tab as Personal to edit and correct it or add notes. All changes will be seen only by you. Learn more »
launch autoscroll
font size
0
reset
how to read this tab
guitar tuner
edit
Autoscroll
slow
fast
+/-
esc
set tempo
stop
Author
Difficulty
 Counting Crows - Hangin Around 
 
 Tabbed by Luke Grant & Chad Himmelman
 
 Email for any problems;
 Luke, Example_word1234@hotmail.com 
 Chad, Achadc_guitarhappy@hotmail.com
 
 Tuning: Standard (E,A,D,G,B,E)

b = Bend
r = Return Bend
p = Pulloff
h = Hammer on
\ = Slide

 Intro
 First Time - 0:13
|---------------------------------------------------------|
|---------------------------------------------------------|
|---------------------------------------------------------|
|---------------------------------------------------------|
|---0--1\3--5--5\7--5--3--2--3--5-------0--1\3---5\7--5---|
|-1-------------------------------0--1---------3----------|
 0:22
|---------------------------------------------------------|
|---------------------------------------------------------|
|---------------------------------------------------------|
|----0h2p0---0--------------------------------------------|
|--3-------3---3p0---------------------------------------|
|--------------------0------------------------------------|
 Second Time - 0:24
|---------------------------------------------------------|
|---------------------------------------------------------|
|---------------------------------------------------------|
|---------------------------------------------------------|
|---0--1\3--5--5\7--5--3--2--3--5-------0--1\3---5\7--5---|
|-1-------------------------------0--1---------3----------|
 0:33
|---------------------------------------------------------|
|---------------------------------------------------------|
|---------------------------------------------------------|
|----0h2p0---0h2p0----------------------------------------|
|--3-------3-------3--------------------------------------|
|---------------------------------------------------------|

Chords F, C, G.
  F        C       G
E--1--   --0--   --3--
B--1--   --1--   --3--
G--2--   --0--   --0--
D--3--   --2--   --0--
A--x--   --3--   --2--
E--x--   --x--   --3--

       Chord Timings
  
 F                C           G
She sat right down on the sofa
                             F               C           G
I said, "Where have you been? I've been waiting for you.
        F               C                G
Cause last night I had something so good
                        F               C       G
These days get so long and I got nothing to do"
                 F        C          G
I been hanginaround this town on the corner
                 F        C          G
I been bummin' around this old town so long
                 F        C          G
I been hanginaround this town on the corner
                 F               C               G
I been bummin' around this old town for way too long
 F        C                G
We spend all day getting sober
                          F
Just hiding from daylight
       C   G
Watching TV (Blame it on the rain)
 F                       C              G
We just look a lot better in the blue light
                               F
Well, you know I gotta get out
                C
But I'm stuck so tight
 G  
Weighed by the chains that keep me...
           F     C              G
hanginaround this town on the corner
                   F    C                 G      
I been bummin' around this old town too long
                 F     C                 G
I been hanginaround this town on the corner
                  F              C                G
I been bummin' around this old town for way too long
 
REPEAT INTRO 1:59 - 1x
SOLO - 2:09 

|---------------------------------------------------------|
|---------------------------------------------------------|
|--------------------------------------------5----5--5----|
|-------------------------------5-5-----5\7-----7-------7-|
|---0--1\3-----5\7--5--5--3--5----------------------------|
|-1---------3---------------------------------------------|

|------------------------------------------8------------10|
|-------------------------------8-8---8h10---8h10--8\11---|
|-5--5-----5--5------5-----5\9----------------------------|
|-------7--------7------7---------------------------------|
|---------------------------------------------------------|
|---------------------------------------------------------|

|-----12--------------------------------------------------|
|-12--13--------------------------------------------------|
|---------------------------------------------------------|
|---------------------------------------------------------|
|---------------------------------------------------------|
|---------------------------------------------------------|

 F                    C                G
And this girl listens to the band play

She says "where have you been?
F                    C              G
I've been lyin right here on the floor"
 F                C
Well, I got all this time
       G      
To be waiting for what is mine
      F         C
To be hating what I am
  G
After the light has faded
         F          C            G
hanginaround this town on the corner
                     F      C               G
I been bummin' around this old town so long
                 F         C            G
I been hanginaround this town on the corner
                     F
I been bummin' around this old town for way too long
                   F    C               G
I been hanginaround this town on the corner
                    F            C        G
I been bummin' around this old town for way, way, way, way, way,  too long

For each way, way, way, way, too long below except the last 2! play below 
3:23
|---------------------------------------------------------|
|---------------------------------------------------------|
|-----5-----5-5-----5-5--7b9r-----------------------------|
|--7-----7-------7----------------------------------------|
|---------------------------------------------------------|
|---------------------------------------------------------|

way, way, way, way, too long

way, way, way, way, too long

way, way, way, way, too long

way, way, way, way, too long

way, way, way, way, too long

way, way, way, way, too long


Thats all! hope you like it! it's our first tab. Don't know about the quality 
of the solo because we tabbed it by ear, but enjoy...=)

            
            
Suggest correction
Creating personal tab
Creating personal tab
You can edit any tab online and save it as your Personal.

You can edit, replace or remove any tab part or add personal notes – all changes will be seen only by you.

Personal tabs can be accessed anytime from any device, even offline.
Learn more »
comments
print report bad tab
2 comments total.
0 reply
Trey3 93 Mar 03, 2009 05:44 AM

Its a good tab. i am a lil iffy on your solo but other than that it seems pretty good. thanks

+1 reply
chall_99 352 Mar 15, 2009 10:20 AM

not bad, chords for song seem right, and extremely simple.

for the main riff, this seems too much though. I hear something in the same note range, but more like this:

[][]
|------------------------|----------------------------------|
|------------------------|----------------------------------|
|------------------------|----------------------------------|
|------------------------|----------------------------------|
|---0-3-5/7-5--3\2/3-5---|---0-3-5/7-5--0h3h5-7p5h7-5-3\5---|
|-1--------------------0-|-1------------------------------0-|

guest
You may want to rate the tab now too:
select rating
Wanna post a correction for this tab? Suggest correction