Oops, an error
Loading. Please wait.

Mr Jones Tab

version 1
version 1

Whole song

Interactive

Video

35,276 views 42 this week
1 commentread comment
1 2 3 4 5
x 6
add to favorites
launch autoscroll
font size
0
reset
how to read this tab
guitar tuner
backing track
0:00
0:00
×
Best way to learn
"Mr Jones"
Autoscroll
slow
fast
+/-
esc
set tempo
stop
Author
Author/Artist: Counting Crows
Title: Mr. Jones
Palm mute all.
Tuning (eb A D G B E), Down ~ 10%, (eb, D) Down ~ 20%
Live Standard Tuning
Two guitars arr. on one.
Key: (D + C#), Mode D

[Intro]
e|----|----------------|
B|----|-1---1---3---8--|
G|----|-2---2---2---7--|
D|----|-2---3---0---5--|
A|----|-------------5--|
E|----|----------------|                                      
  [Verse]                                                                      
e|----|----------------|
B|----|-1----1----3----|
G|----|-0----2----0----|
D|----|-2----3----0----|
A|----|----------------|
E|----|----------------|
 
[Chorus]
e|----|----------------------|
B|----|----------------------|
G|----|-5----5----5----4-----|
D|----|-7----7----7----5-----|
A|----|-7----8----7----5-----|
E|----|----------------------|
Suggest correction
comments
print report bad tab
1 comment total.
0 reply
coletbatey 10 Apr 29, 2017 08:57 PM

😔

guest
You may want to rate the tab now too:
select rating
Wanna post a correction for this tab? Suggest correction