Oops, an error
Loading. Please wait.

Time And Time Again chords

15,331 views 33 this week
2 commentsread comments
1 2 3 4 5
x 7
add to favorites
×
Save as Personal and add changes to this tab that will be seen only by you. Learn more ›
×
You can save this tab as Personal to edit and correct it or add notes. All changes will be seen only by you. Learn more »
launch autoscroll
font size
0
reset
transpose
0
reset
display chords
guitar tuner
edit
Autoscroll
slow
fast
+/-
esc
set tempo
stop
Strumming
There is no strumming pattern for this song yet. and get +5 IQ
#----------------------------------PLEASE NOTE---------------------------------#
#This file is the author's own work and represents their interpretation of the #
#song. You may only use this file for private study, scholarship, or research. #
#------------------------------------------------------------------------------##
From: ken@cloudbusting.apple.com (Ken McLeod)
Subject: CRD/TAB: Time & Time Again (Counting Crows)
Date: Tue, 10 May 1994 13:48:30 GMT
Followup-To: rec.music.makers.guitar.tablature,alt.guitar.tab

-- TIME AND TIME AGAIN --    Counting Crows


Intro & verse pattern:
    C
E|---------------------------|---------------------------|
B|------1---1---1---1-----1--|------1---1---1---1-----1--|
G|----0---0-------0-----0----|----0---0-------0-----0----|
D|---------------------------|---------------------------|
A|--0---------0-------0------|---------------------------|
E|---------------------------|--3---------3-------3------|

An alternate pattern to throw in for some variation:
    C
E|---------------------------|
B|------1---1---1---1-----1--|
G|----0---0-------0-----0----|
D|--------------------2------|
A|--3---------3--------------|
E|---------------------------|

C
I wanted so badly   Somebody other than me
Staring back at me   But you were gone
I wanted to see you walking backwards
And get the sensation of you coming home
I wanted to see you walking away from me
Without the sensation of you leaving me alone

CHORUS:
             Dm         C  (Am)             Dm         C  (Am)
    Time and time again            Time and time again
             Dm         C                  F
    Time and time again            I can't please myself

C
I wanted the ocean to cover over me
I wanna sink slowly without getting wet
Maybe someday, I won't be so lonely
And I'll walk on water every chance I get

(CHORUS)

Bb-C-F
F                      Bb           F
So when are you coming home   Sweet angel?
                Bb           F     Dm
You leaving me alone?   All alone?
            C                             Bb                    (F)
Well if I'm drowning darling, you'll come down this way on your own

C
I wish I was traveling on a freeway
Beneath this graveyard western sky
I'm gonna set fire to this city
And out into the desert we're gonna ride

(CHORUS)

--
Ken McLeod
Apple Computer, Inc.
ken@cloudbusting.apple.com

Suggest correction
Creating personal tab
Creating personal tab
You can edit any tab online and save it as your Personal.

You can edit, replace or remove any tab part or add personal notes – all changes will be seen only by you.

Personal tabs can be accessed anytime from any device, even offline.
Learn more »
comments
print report bad tab
2 comments total.
-1 reply
strokemystripes 10 Sep 13, 2006 05:37 PM

this is the same as the other tab.

which doesnt sound right.

+1 reply
mr. jones3642 10 Oct 16, 2006 12:47 PM

the notes are correct so technically the tab is right but its not what is played...the riff goes like so

E|-----------------------------|------------------------|
B|-----------------------------|------------------------|
G|-----------------------------|------------------------|
D|-----------------------------|------------------------|
A|-----3---3---3---3---3---3-3-|---3--3---3---3---3-3-3-|
E|-3h5---5---5---5---5---5-----|-3--3---3---3---3---3---|

repeat that w/e...but thats how they play it...you could use a capo on three if you're lazy and have another guitar play the chords...
im not sure if the chords are right or not. i havent checked yours.

guest
Wanna post a correction for this tab? Suggest correction