Oops, an error
Loading. Please wait.

When I Dream Of Michelangelo tab

4,751 views 3 this week
no commentswrite comment
1 2 3 4 5
3 more votes to show rating
add to favorites
×
Save as Personal and add changes to this tab that will be seen only by you. Learn more ›
×
You can save this tab as Personal to edit and correct it or add notes. All changes will be seen only by you. Learn more »
launch autoscroll
font size
0
reset
how to read this tab
guitar tuner
edit
Autoscroll
slow
fast
+/-
esc
set tempo
stop
Difficulty
Standard tuning-no capo

Basically I just finger-pick this entire song & it sounds more accurate than strumming 
with Capo2 G-C-D.
This is my first song to tab, I just knew that was a better way to play this song than 
already been posted.

Intro:
             A           B           D           D
e|--------|--5---5-------7---7-------5---5-------5---5----------------|
B|--------|--5------5----9------9----7------7----7------7-------------|
G|--------|--6-----------9-----------7-----------7---------   repeat--| x3
D|--------|----7------7----9------9----7------7----7------7-----------|
A|----0~2-|-------7------7-----------5-----------5--------------------|
E|-0~2----|--5----------------7-----------5-----------5---------------|

Verse:

Well, you know I don't like you..
It's ok, I'm angry...
   A           A           E           D           D
e|-5---5-------5---5-------7---7-------5---5-------5---5------|
B|-5------5----5------5----9------9----7------7----7------7---|
G|-6-----------6-----------9-----------7-----------7----------|
D|---7------7-----7------7---9------9----7------7----7------7-|
A|------7------------7-----7-----------5-----------5----------|
E|-5-----------5----------------7-----------5-----------------|

   E           D           E           A
e|-7---7-------5---5-------7---7-------5---5--------|
B|-9------9----7------7----9------7----5------5-----|
G|-9-----------7-----------9-----------6------------|   repeat
D|---9------7----7------7----9------9----7-------7--|
A|-7-----------5-----------7-----------------7------|
E|------7-----------5-----------7------5------------|


Chorus:

And I know she is not my friend
   Bm                    E
e|-7---7-------       e|-7---7------|
B|-7------7----       B|-9------7---|
G|-9-----------  x2   G|-9----------| x2
D|---9-------9-       D|---9------9-|
A|------9------       A|-7----------|
E|-7-----------       E|------7-----|

continue picking pattern thoughout the rest of song:
Cause there she goes, walking on my skin again (and again)
Bm-Bm-D-E-(A)


Bridge:
Saturn on line..
D-D-E-E
Spin above my head..
D-D-A-A
Anytime you'd like..
D-D-E-E
All emptiness and infinite
D-E-E

Verse
Chorus x2

Outro:
Oh my mind..
D-D-E-E
D-E-A-A

            
            
Suggest correction
Creating personal tab
Creating personal tab
You can edit any tab online and save it as your Personal.

You can edit, replace or remove any tab part or add personal notes – all changes will be seen only by you.

Personal tabs can be accessed anytime from any device, even offline.
Learn more »
Give kudos to tab author, rate the tab!
1 2 3 4 5
comments
print report bad tab
guest
Wanna post a correction for this tab? Suggest correction