Oops, an error
Loading. Please wait.

Bass Strings bass

304 views 1 this week
2 commentsread comments
1 2 3 4 5
2 more votes to show rating
add to favorites
×
Save as Personal and add changes to this tab that will be seen only by you. Learn more ›
×
You can save this tab as Personal to edit and correct it or add notes. All changes will be seen only by you. Learn more »
launch autoscroll
font size
0
reset
guitar tuner
edit
Autoscroll
slow
fast
+/-
esc
set tempo
stop
Tabbed by: 6METAL6BASSIST6
E-mail: petergriffinav@gmail.com

Tuning: EADG

0:14

G|--------|
D|14------|
A|--------|
E|--------|

G|----------------------------------------------------------------|
D|----------------------------------------------------------------|
A|7---------------5---------------3-------------------------------|
E|------------------------------------------------5-------3---5---|

0:22

G|----------------------------------------------------------------|
D|----------------------------------------------------------------| x2
A|7-----------7---5---------------3-------------------------------|
E|------------------------------------------------5-------3---5---|

G|----------------------------------------------------------------|
D|----------------------------------------------------------------|
A|7-----------7---5---------------3-----------3-------------------|
E|------------------------------------------------5-------3---5---|

G|----------------------------------------------------------------|
D|----------------------------------------------------------------|
A|7-----------7---5---------------3-----------3-------------------|
E|------------------------------------------------5-------3-------|

0:49

G|----------------------------------------------------------------|
D|--------------------------------------------------------4---5---|
A|----------------3---------------5---------------7---------------|
E|5-----------5---------------------------------------------------|

G|----------------------------------------------------------------|
D|7-----------7---10----------10--7-----------7---5-------4-------|
A|----------------------------------------------------------------|
E|----------------------------------------------------------------|

G|----------------------------------------------------------------|
D|----------------------------------------------------------------|
A|7-----------7---5---------------3-----------3-------------------|
E|------------------------------------------------5-------3-------|

G|----------------------------------------------------------------|
D|------------------------------------------------------------5-/-|
A|7-----------7---5-----------5---3-----------3---5-------5-------|
E|------------------------0---------------0-----------------------|

1:17

G|----------------------------------------------------------------|
D|9-------9-\-------------5---7-/-9-------9-\-------------5---6-/-|
A|------------------/-7-----------------------------/-7-----------|
E|------------7-------------------------------7-------------------|

G|----------------------------------------------------------------|
D|7-----------7---10------7-------5-----------------------14------|
A|----------------------------------------------------------------|
E|----------------------------------------------------------------|

1:30

G|----------------------------------------------------------------|
D|----------------------------------------------------------------|
A|7---------------5---------------3-------------------------------|
E|------------------------------------------------5-------3---5---|

G|----------------------------------------------------------------|
D|----------------------------------------------------------------| x2
A|7-----------7---5---------------3-------------------------------|
E|------------------------------------------------5-------3---5---|

G|----------------------------------------------------------------|
D|----------------------------------------------------------------|
A|7-----------7---5-----------5---3-----------3-------------------|
E|--------0---------------0---------------0-------5-------3---5---|

1:57

G|----------------------------------------------------------------|
D|----------------------------------------------------------------|
A|7-----------7---5-----------5---3-----------3-------------------|
E|------------------------------------------------5-------3-------|

G|----------------------------------------------------------------|
D|------------------------------------------------------------5-/-|
A|----------------------------------------3-------5-------5-------|
E|0-----------0---3-----------3---5-------------------------------|

G|----------------------------------------------------------------|
D|7-----------7---5-----------5---7-----------7---10------7---\---|
A|----------------------------------------------------------------|
E|----------------------------------------------------------------|

G|----------------------------------------------------------------|
D|7-----------7---10----------10--7---------------5-------4-------|
A|----------------------------------------------------------------|
E|----------------------------------------------------------------|

2:25

G|----------------------------------------------------------------|
D|----------------------------------------------------------------|
A|7-----------7---5-----------5---3-----------3-------------------|
E|------------------------------------------------5-------3---5---|

G|----------------------------------------------------------------|
D|------------------------------------------------5-------7-----/-|
A|7-----------7---5-----------5---7-----------7-------------------|
E|----------------------------------------------------------------|

2:38

G|----------------------------------------------------------------|
D|9-------9-\-------------5---7-/-9-------9-\-------------5-------|
A|------------------/-7-----------------------------/-7-------7---|
E|------------7-------------------------------7-------------------|

G|----------------------------------------------------------------|
D|----------------------------------------------------------------|
A|----3-------------------3---------------------------------------|
E|5-------------------------------3-------------------------------|

2:52

G|----------------------------------------------------------------|
D|----------------------------------------------------------------|
A|7-----------7---5---------------3-----------3-------------------|
E|------------------------------------------------5-------3---5---|

G|----------------------------------------------------------------|
D|----------------------------------------------------------------|
A|7-----------7---5---------------3-------------------------------|
E|------------------------------------------------5-------3---5---|

G|----------------------------------------------------------------|
D|----------------------------------------------------------------|
A|------------------------------------------------3-------5-------|
E|0-----------0---3-----------3---5-------------------------------|

G|----------------------------------------------------------------|
D|----------------------------------------------------------------|
A|7---------------5---------------3-------------------------------|
E|------------------------------------------------5-------3---5---|

G|----------------------------------------------------------------|
D|----------------------------------------------------------------|
A|7-----------7---5---------------3-----------3-------------------|
E|------------------------------------------------5-------3---5---|

G|----------------------------------------------------------------|
D|----------------------------------------------------------------|
A|7-----------7---5---------------3-----------3-------------------|
E|------------------------------------------------5-------3-------|

3:32

G|----------------------------------------------------------------|
D|--------------------------------------------------------4---5---|
A|----------------3---------------5-----------5---7---------------|
E|5-----------5---------------------------------------------------|

G|----------------------------------------------------------------|
D|7-----------7---10----------10--7-----------7---5-------4-------|
A|----------------------------------------------------------------|
E|----------------------------------------------------------------|

G|----------------------------------------------------------------|
D|----------------------------------------------------------------|
A|7-----------7---5-----------5---3-----------3-------------------|
E|------------------------------------------------5-------3---5---|

G|----------------------------------------------------------------|
D|------------------------------------------------------------5-/-|
A|7-----------7---5-----------5---3-----------3---5-------5-------|
E|----------------------------------------------------------------|

4:00

G|----------------------------------------------------------------|
D|9-------9-\-------------5---7-/-9-------9-\-------------5---4---|
A|------------------/-7-----------------------------/-7-----------|
E|------------7-------------------------------7-------------------|

G|----------------------------------------------------------------|
D|7-----------7---10------7-------5-----------------------14------|
A|----------------------------------------------------------------|
E|----------------------------------------------------------------|

4:12

G|----------------------------------------------------------------|
D|----------------------------------------------------------------|
A|7-----------7---5---------------3-----------3-------------------|
E|------------------------------------------------5-------3---5---|

G|----------------------------------------------------------------|
D|----------------------------------------------------------------|
A|7-----------7---5---------------3-------------------------------|
E|------------------------------------------------5-------3-------|

G|----------------------------------------------------------------|
D|----------------------------------------------------------------|
A|------------------------------------------------3-------5-------|
E|0---------------3-----------3---5-----------5-------------------|

G|----------------------------------------------------------------|
D|----------------------------------------------------------------| x2
A|7---------------5---------------3-------------------------------|
E|------------------------------------------------5-------3-------|

G|----------------------------------------------------------------|
D|----------------------------------------------------------------|
A|7-----------7---5-----------5---3-----------3-------------------|
E|------------------------------------------------5-------3-------|

G|--------------------------------------------------------------------|
D|--------------------------------------------------------4---5---7---| fades out here.
A|----------------3-----------3---5-----------5---7-------------------|
E|5-----------5-------------------------------------------------------|
Suggest correction
Creating personal tab
Creating personal tab
You can edit any tab online and save it as your Personal.

You can edit, replace or remove any tab part or add personal notes – all changes will be seen only by you.

Personal tabs can be accessed anytime from any device, even offline.
Learn more »
Give kudos to tab author, rate the tab!
1 2 3 4 5
comments
print report bad tab
2 comments total.
+1 reply
ZackWyatt 14 Apr 12, 2016 03:03 PM

Thanks so much for doing this!

guest
You may want to rate the tab now too:
select rating
Wanna post a correction for this tab? Suggest correction