Oops, an error
Loading. Please wait.

Rock Coast Blues Bass Tab

28 views 3 this week
no commentswrite comment
1 2 3 4 5
3 more votes to show rating
add to favorites
launch autoscroll
font size
0
reset
guitar tuner
Autoscroll
slow
fast
+/-
esc
set tempo
stop
Help us to improve Ultimate-Guitar.com Take our survey!
×
Author
Difficulty
intermediate
It's possible that I've missed something so feel free to correct me. This is a fairly simple song but I would 
recommend playing along to it to get the timing down. Enjoy :)

[Verse]

G|-----------------------------------------|
D|---------7-9-11--------------7-8-9--9--9-|
A|-7-9-10-----------5--5--9--9-------------|
E|-----------------------------------------|

G|------------------------------------|
D|--------------------------------7---|
A|-7--10--7--10--7--10/12--10--5------|
E|------------------------------------|

G|----------------------------|-----------------------------------|
D|----------------7-8-9--9--9-|--------------------------------7--|
A|---------5--9-9-------------|-7--10--7--10--7--10/12--10--5-----|
E|--5-7-9---------------------|-----------------------------------|

[Chorus]

G|------------------------------------------|
D|--5------5---4-----4----------------------|
A|-------5---------4-----0--2---0--5---0--7-|
E|------------------------------------------|

[Verse]

G|-----------------------------------------|
D|---------7-9-11--------------7-8-9--9--9-|
A|-7-9-10-----------5--5--9--9-------------|
E|-----------------------------------------|

G|------------------------------------|
D|--------------------------------7---|
A|-7--10--7--10--7--10/12--10--5------|
E|------------------------------------|

G|----------------------------|-----------------------------------| 
D|----------------7-8-9--9--9-|--------------------------------7--| x2
A|---------5--9-9-------------|-7--10--7--10--7--10/12--10--5-----|
E|--5-7-9---------------------|-----------------------------------|

[Chorus]

G|------------------------------------------|
D|--5------5---4-----4----------------------|
A|-------5---------4-----0--2---0--5---0--7-|
E|------------------------------------------|

[Outro]

G|----------------------------|
D|----------------7-8-9--9--9-| repeat until fade
A|---------5--9-9-------------|
E|--5-7-9---------------------|

Suggest correction
Give kudos to tab author, rate the tab!
1 2 3 4 5
comments
print report bad tab
guest
You may want to rate the tab now too:
select rating
Wanna post a correction for this tab? Suggest correction