Oops, an error
Loading. Please wait.

Anger Cage Tab

version 1
version 1

Whole song

2,535 views 1 this week
no commentswrite comment
1 2 3 4 5
please rate
add to favorites
launch autoscroll
font size
0
reset
how to read this tab
guitar tuner
Autoscroll
slow
fast
+/-
esc
set tempo
stop
Help us to improve Ultimate-Guitar.com Take our survey!
×
Author
Difficulty
Tuning
intermediate
D A D G B E
-------------------------------------------------------------------------------
                             Anger Cage - Course of Nature
-------------------------------------------------------------------------------
Tabbed by: Chris Bendrell 
Email: chrisbend24@yahoo.com

Tuning: drop d 

Intro
Guitar 1 (Dist.)
e|------------------------------------------------------------------------------|
B|------------------------------------------------------------------------------|
G|------------------------------------------------------------------------------|
D|---------------------x-x-x-x----------6------------------------------------6--|
A|---6/8-6-4-4/6-4-1-4-x-x-x-x-6/8-6-4-6-8--------6/8-6-4-4/6-4-1-4-8-6-4-1-6-8~|
D|---------------------x-x-x-x--------------------------------------------------|

Guitar 2 (Dist.)
e|-----------------------------------------------------------------------------|
B|-----------------------------------------------------------------------------|
G|-----------------------------------------------------------------------------|
D|-8-8-8-8-6-6-6-6-1-1-1-1-6-6-6-6-8-8-8-8-11-11-11-11-13-13-13-13-13-13-13-13~|
A|-8-8-8-8-6-6-6-6-1-1-1-1-6-6-6-6-8-8-8-8-11-11-11-11-13-13-13-13-13-13-13-13~|
D|-8-8-8-8-6-6-6-6-1-1-1-1-6-6-6-6-8-8-8-8-11-11-11-11-13-13-13-13-13-13-13-13~|

Verse 
Guitar 1 (Dist.)
e|-------------------------------------------------------------------------------------------|
B|-------------------------------------------------------------------------------------------|
G|-------------------------------------------------------------------------------------------|
D|-------------------------------------------------------------------------------------------|
A|-----------------------------------------------------------------------------------11-11-11|
D|-----------------------------------------------------------------------------------11-11-11|

Guitar 2 (Dist.)
e|-------------------------------------------------------------------------------------------|
B|-------------------------------------------------------------------------------------------|
G|-------------------------------------------------------------------------------------------|
D|-------------------------------------------------------------------------------------------|
A|-8-8-11-11-11-x--x-x--x-x-8-8-11-11-11-x-x-x--x-8-8-11-11-11-x-x-x--x-8-8-11-11-11-11-11-11|
D|-8-8-11-11-11-x--x-x--x-x-8-8-11-11-11-x-x-x--x-8-8-11-11-11-x-x-x--x-8-8-11-11-11-11-11-11|
                                      
Pre Chorus           
Guitar 1 (Dist.)                                   
e|---------------------------------------------------------------------------|
B|---------------------------------------------------------------------------|
G|---------------------------------------------------------------------------|
D|---------------------------------------------------------------------------|
A|---------------------------------------------------------------------------|
D|---------------------------------------------------------------------------|

Guitar 2 (Dist.)
e|---------------------------------------------------------------------------|
B|---------------------------------------------------------------------------|
G|----1-3~-----3-6~-----1-3~-------------------------------------------------|
D|-4~-------6~-------4~------1--1--1-1-1--1--1-1-1-1-------------------------|
A|-4~-------6~-------4~------1--1--1-1-1--1--1-1-1-1-------------------------|
D|-4~-------6~-------4~------1--1--1-1-1--1--1-1-1-1-------------------------|

Chorus
Guitar 1 (Dist.)
e|-6---6---4---4---6---6---4---4---6---6---9---9-----------------------------|
B|---6---6---6---6---6---6---6---6---6---6---6---6---------------------------|
G|---------------------------------------------------------------------------|
D|---------------------------------------------------------------------------|
A|---------------------------------------------------------------------------|
D|---------------------------------------------------------------------------|

e|---------------------------------------------------------------------------|
B|---------------------------------------------------------------------------|
G|---------------------------------------------------------------------------|
D|---------------------------------------------------------------------------|
A|---------------------------------------------------------------------------|
D|---------------------------------------------------------------------------|


Guitar 2 (Dist.)
e|---------------------------------------------------------------------------|
B|---------------------------------------------------------------------------|
G|---------------------------------------------------------------------------|
D|-8---8---6---6---1---1---6---6---8---8---11---11---13-13-13-13-13-13-13-13-|
A|-8---8---6---6---1---1---6---6---8---8---11---11---13-13-13-13-13-13-13-13-|
D|-8---8---6---6---1---1---6---6---8---8---11---11---13-13-13-13-13-13-13-13-|

e|-----------------------------------------------------------------------------|
B|-----------------------------------------------------------------------------|
G|-----------------------------------------------------------------------------|
D|-8-8-8-8-6-6-6-6-1-1-1-1-6-6-6-6-8-8-8-8-11-11-11-11-13-13-13-13-13-13-13-13~|
A|-8-8-8-8-6-6-6-6-1-1-1-1-6-6-6-6-8-8-8-8-11-11-11-11-13-13-13-13-13-13-13-13~|
D|-8-8-8-8-6-6-6-6-1-1-1-1-6-6-6-6-8-8-8-8-11-11-11-11-13-13-13-13-13-13-13-13~|

Bridge/Solo
Guitar 1 (Dist.)
e|---------------------------------------------------------------------------|
B|---------------------------------------------------------------------------|
G|---------------------------------------------------------------------------|
D|---------------------------------------------------------------------------|
A|---------------------------------------------------------------------------|
D|---------------------------------------------------------------------------|

Guitar 2 (Dist.)
e|---------------------------------------------------------------------------|
B|---------------------------------------------------------------------------|
G|---------------------------------------------------------------------------|
D|-3----6----8----10----3----6----8----10----3-3-5b-6-6-8b-8-8-10b-10-10-1~--|
A|-3----6----8----10----3----6----8----10----3-3----6-6----8-8-----10-10-1~--|
D|-3----6----8----10----3----6----8----10----3-3----6-6----8-8-----10-10-1~--|

e|-----------------------------------------------------------------------------------------|
B|------------------------------------------------------------------------------11~~~~~~---|
G|--------------------------------------------------------------------8-10-11-13-----------|
D|-3-3-5b-6-6-8b-8-8-8-8-10-10-10-10---8-------8~~~10~~~8~~~-8-10-11-13--------------------|
A|-3-3----6-6----8-8-8-8-10-10-10-10---8-10~~~---------------------------------------------|
D|-3-3----6-6----8-8-8-8-10-10-10-10---8---------------------------------------------------|

Fill 1
Guitar 1 (Dist.)
e|-------------------------------|
B|-------------------------------|
G|-------------------------------|
D|-------------------------------|
A|-8-8-11-11-11-8-8-8-8-8-8-8-8--|
D|-8-8-11-11-11-8-8-8-8-8-8-8-8--|
   * * *  *  *  * * * * * * * * 

Guitar 2 (Dist.)
e|-------------------------------|
B|-------------------------------|
G|-------------------------------|
D|----------------------------6--|
A|-6/8-6-4-4/6-4-1-4-8-6-4-1-6-8~|
D|-------------------------------|

Fill 2
Both Guitars (Dist.)
e|--------|
B|--------|
G|--------|
D|--------|
A|--------|
E|-13-13\-|

Fill 3
Both Guitars (Dist.)
e|----------------------------------------------|
B|-----------------------------4-4-4-4-4-4-4----|
G|----------------------------------------------|
D|-1-1-1-1-1-1-1-1-1-1-1-1-1-1-1-1-1-1-1-1-1-8-6|
A|-1-1-1-1-1-1-1-1-1-1-1-1-1-1-1-1-1-1-1-1-1-8-6|
D|-1-1-1-1-1-1-1-1-1-1-1-1-1-1-1-1-1-1-1-1-1-8-6|
     * * * * * * * * * * * * * 



Order:
Intro
Verse
Pre Chorus
Chorus
Fill 1
Verse
Pre Chorus
Fill 2
Chorus
Bridge/Solo
Chorus x2
Fill 3



| *  palm mute
| /  slide up
| \  slide down
| h  hammer-on
| p  pull-off
| ~  vibrato
| +  harmonic
| x  Mute note
===============================================================================
Suggest correction new What's this?
You can suggest a correction to this tab. Community and Mods will review your correction and vote to approve or reject it.
comments
We did not receive enough feedback on this tab! Please rate:
print report bad tab
1 2 3 4 5
guest
You may want to rate the tab now too:
select rating
Please do not post tabs as comments. Select "correction" instead!