Oops, an error
Loading. Please wait.

Caught In The Sun Bass Tab

version 1
version 1

Whole song

Interactive

597 views 1 this week
no commentswrite comment
1 2 3 4 5
2 more votes to show rating
add to favorites
launch autoscroll
font size
0
reset
guitar tuner
Autoscroll
slow
fast
+/-
esc
set tempo
stop
Help us to improve Ultimate-Guitar.com Take our survey!
×
Difficulty
novice
G|--------6h88----10/11-8--------------3-5-6-6h8-6h86h8--|
D|--8----------6----------10----4-3-4--------------------|
A|-------------------------------------------------------|
E|-------------------------------------------------------|

Verse 1:

G|------6h88------------------------3-5-6-6h8-6h8-88--|
D|--8--------6---------10h11--4-3-4-------------------|
A|----------------------------------------------------| 
E|----------------------------------------------------|

G|------6h88-----------------------3-5-6-6h8-6h8-6h8--|
D|--8--------6--------10h11--4-3-4--------------------|
A|----------------------------------------------------|
E|----------------------------------------------------|


G|------6h88--------------------------------6-5-6/8---|
D|--8--------6---------10h11--4-3-4--4-3-4------------|
A|----------------------------------------------------|
E|----------------------------------------------------|

G|--------88----------------------------------------|
D|--8--10----6---------10h11--4-3-4--4-3-4-4--------|
A|--------------------------------------------------|
E|--------------------------------------------------|

Chorus:

G|-------------------------------------------------------------|
D|-------------------------------------------------------------|
A|-4-4-4-4-4-4-4-4---------------------------------------------|
E|-----------------4-4-4-4-4-4-4-4--2-1-2--2-2--6666-4444-3h4--|

G|---------------------------------------------------------|
D|-------------------------------------------------3-------|
A|-4-4-4-4-4-4-4-4------------------------------1-3--------|
E|-----------------4-4-4-4-4-4-4-4--2-1-2--2-2-------4-----|


Verse 2:

G|--------6h88----10/11-8--------------3-5-6-6h8-6h86h8--|
D|--8----------6----------10----4-3-4--------------------|
A|-------------------------------------------------------|
E|-------------------------------------------------------|

G|------6h88------------------------3-5-6-6h8-6h8-88--|
D|--8--------6---------10h11--4-3-4-------------------|
A|----------------------------------------------------| 
E|----------------------------------------------------|

G|------6h88----------------------------6-6h8-6h88----|
D|--8--------6--------10h11--4-3-4--------------------|
A|----------------------------------------------------|
E|----------------------------------------------------|


G|------6h88------------------------3-5-6-6h8-6h8-88--|
D|--8--------6---------10h11--4-3-4-------------------|
A|----------------------------------------------------| 
E|----------------------------------------------------|

G|--------88----------------------------------------|
D|--8--10----6---------10h11--4-3-4--4-3-4-4-33-11--|
A|--------------------------------------------------|
E|--------------------------------------------------|

Chorus:

G|-------------------------------------------------------------|
D|-------------------------------------------------------------|
A|-4-4-4-4-4-4-4-4---------------------------------------------|
E|-----------------4-4-4-4-4-4-4-4--2-1-2--2-2--6666-4444-3h4--|


G|---------------------------------------------------------|
D|-------------------------------------------------3-1-----|
A|-4-4-4-4-4-4-4-4------------------------------1-3----3---|
E|-----------------4-4-4-4-4-4-4-4--2-1-2--2-2----------4--|


Bridge:

G|-------------------------------------------------------------------|
D|-------------------------------------------------------------------|
A|-------------------------------------------------------------------|
E|-5-5-5-5-5-5-5-5-7-7-7-7-7-7-7-7-7/99-7/99-7/999-7/99-7/99-7/9997--|


G|----------------------------------------------------------|
D|----------------------------------------------------------|
A|----------------------------------------------------------|
E|-5-5-5-5-5-5-5-5-7-7-7-7-7-7-7-7-7/99-7/99-7/999-7/99975--|


G|--------6h88----10/11-8--------------3-5-6-6h8-6h86h8--|
D|--8----------6----------10----4-3-4--------------------|
A|-------------------------------------------------------|
E|-------------------------------------------------------|


G|--------6h88----10/11-8-----------|
D|--8----------6----------10h11---4-|
A|----------------------------------|
E|----------------------------------|


G|-------------------------|
D|-------------------------|
A|-111-333-444-666-4h6666--|
E|-------------------------|


Chorus:

G|-------------------------------------------------------------|
D|-------------------------------------------------------------|
A|-4-4-4-4-4-4-4-4---------------------------------------------|
E|-----------------4-4-4-4-4-4-4-4--2-1-2--2-2--6666-4444-3h4--|

G|---------------------------------------------------------|
D|-------------------------------------------------3-1-----|
A|-4-4-4-4-4-4-4-4------------------------------1-3----3---|
E|-----------------4-4-4-4-4-4-4-4--2-1-2--2-2----------4--|



G|-------------------------------------------------------------|
D|-------------------------------------------------------------|
A|-4-4-4-4-4-4-4-4---------------------------------------------|
E|-----------------4-4-4-4-4-4-4-4--2-1-2--2-2--6666-4444-3h4--|


G|----------------------------------------|
D|----------------------------------------|
A|-4-4-4-4-4-4-4-4------------------------|
E|-----------------4-4-4-4-4-4-4-4--2/14--|

Suggest correction
Give kudos to tab author, rate the tab!
1 2 3 4 5
comments
print report bad tab
guest
You may want to rate the tab now too:
select rating
Wanna post a correction for this tab? Suggest correction