Oops, an error
Loading. Please wait.

Caught In The Sun Bass Tab

version 2
version 2

Whole song

Interactive

205 views 1 this week
no commentswrite comment
1 2 3 4 5
please rate
add to favorites
launch autoscroll
font size
0
reset
guitar tuner
Autoscroll
slow
fast
+/-
esc
set tempo
stop
Help us to improve Ultimate-Guitar.com Take our survey!
×
Contributor
Difficulty
Emptyass 776
intermediate
Band: Course Of Nature
Song: Caught In The Sun
Album: Superkala
Tabbed for: Bass
Tuning: Normal (EADG)
Note: Some small adjustments in this one!

This song is just great! It was in the serie "Smallville" I heard it!
So I looked for some tabs for it and found one, but I thought it was a bit diffuicult 
so I tabbed it in my own way and well; here you are..
Enjoy! (Listen to timing)

Course Of Nature - Caught In The Sun (Bass)

Intro: (00:12)
G|---------------|-13/15/13----------|----------------------------|
D|------11h13----|----------11-------|----10-11-11h13-11h13-11h13-|
A|--13--------11-|-------------9-8-9-|-13-------------------------|
E|---------------|-------------------|----------------------------|

Verse 1: (00:24)
G|---------------|-------------|----------------------------|
D|------11h13----|-10/11-------|----10-11-11h13-11h13-11h13-|
A|--13--------11-|-------9-8-9-|-13-------------------------|
E|---------------|-------------|----------------------------|

G|---------------|-------------|------------------|
D|------11h13----|-10/11-------|-------11---13h---|
A|--13--------11-|-------9-8-9-|-9-8-9----9----13-|
E|---------------|-------------|------------------|

G|---------------|-------------|----------------------------|
D|------11h13----|-10/11-------|----10-11-11h13-11h13-11h13-|
A|--13--------11-|-------9-8-9-|-13-------------------------|
E|---------------|-------------|----------------------------|

G|---------------|-------------|---------|
D|------11h13----|-10/11-------|---------|
A|--13--------11-|-------9-8-9-|-9-8-9-9-|
E|---------------|-------------|---------|

Chorus: (01:12)
G|-----------------|-----------------|------------|---------------|
D|-----------------|-----------------|------------|---------------|
A|-4-4-4-4-4-4-4-4-|-----------------|------------|---------------|
E|-----------------|-4-4-4-4-4-4-4-4-|-2-1-2--2-2-|-6666-4444-2h4-|

G|-----------------|-----------------|------------|---------|
D|-----------------|-----------------|------------|----3----|
A|-4-4-4-4-4-4-4-4-|-----------------|------------|-1-3-----|
E|-----------------|-4-4-4-4-4-4-4-4-|-2-1-2--2-2-|-------4-|

Pre-verse: (01:36)
G|---------------|-13/15/13----------|----------------------------|
D|------11h13----|----------11-------|----10-11-11h13-11h13-11h13-|
A|--13--------11-|-------------9-8-9-|-13-------------------------|
E|---------------|-------------------|----------------------------|

Verse 2: (01:48)
G|---------------|-------------|----------------------------|
D|------11h13----|-10/11-------|----10-11-11h13-11h13-11h13-|
A|--13--------11-|-------9-8-9-|-13-------------------------|
E|---------------|-------------|----------------------------|

G|---------------|-------------|------------------|
D|------11h13----|-10/11-------|-------11---13h---|
A|--13--------11-|-------9-8-9-|-9-8-9----9----13-|
E|---------------|-------------|------------------|

G|---------------|-------------|----------------------------|
D|------11h13----|-10/11-------|----10-11-11h13-11h13-11h13-|
A|--13--------11-|-------9-8-9-|-13-------------------------|
E|---------------|-------------|----------------------------|

G|---------------|-------------|-----------------|
D|------11h13----|-10/11-------|-----------------|
A|--13--------11-|-------9-8-9-|-9-8-9-9-8-8-6-6-|
E|---------------|-------------|-----------------|

Chorus:
G|-----------------|-----------------|------------|---------------|
D|-----------------|-----------------|------------|---------------|
A|-4-4-4-4-4-4-4-4-|-----------------|------------|---------------|
E|-----------------|-4-4-4-4-4-4-4-4-|-2-1-2--2-2-|-6666-4444-2h4-|

G|-----------------|-----------------|------------------------|
D|-----------------|-----------------|-----------------3-1----|
A|-4-4-4-4-4-4-4-4-|-----------------|-------------1-3-----3--|
E|-----------------|-4-4-4-4-4-4-4-4-|-2-1-2--2-2-----------4-|

Bridge: (03:00)
G|-----------------|-----------------|------------------|
D|-----------------|-----------------|------------------|
A|-----------------|-----------------|------------------|
E|-5-5-5-5-5-5-5-5-|-7-7-7-7-7-7-7-7-|-7-/99-7/99-7/999-|

G|-----------------|
D|-----------------|
A|-----------------|
E|7/99-7/99-7/9997-|

G|-----------------|-----------------|-------------------------|
D|-----------------|-----------------|-------------------------|
A|-----------------|-----------------|-------------------------|
E|-5-5-5-5-5-5-5-5-|-7-7-7-7-7-7-7-7-|-7/99-7/99-7/999-7/99975-|

Solo: (03:26)
G|---------------|-------------|----------------------------|
D|------11h13----|-10/11-------|----10-11-11h13-11h13-11h13-|
A|--13--------11-|-------9-8-9-|-13-------------------------|
E|---------------|-------------|----------------------------|

G|---------------|---------|--------------------------|
D|------11h13----|-10/11---|--------------------------|
A|--13--------11-|-------9-|--111-333-444-666-4h6666--|
E|---------------|---------|--------------------------|

Chorus: (03:50)
G|-----------------|-----------------|------------|---------------|
D|-----------------|-----------------|------------|---------------|
A|-4-4-4-4-4-4-4-4-|-----------------|------------|---------------|
E|-----------------|-4-4-4-4-4-4-4-4-|-2-1-2--2-2-|-6666-4444-2h4-|

G|-----------------|-----------------|------------------------|
D|-----------------|-----------------|-----------------3-1----|
A|-4-4-4-4-4-4-4-4-|-----------------|-------------1-3-----3--|
E|-----------------|-4-4-4-4-4-4-4-4-|-2-1-2--2-2-----------4-|

Outro: (04:14)
G|-----------------|-----------------|------------|---------------|
D|-----------------|-----------------|------------|---------------|
A|-4-4-4-4-4-4-4-4-|-----------------|------------|---------------|
E|-----------------|-4-4-4-4-4-4-4-4-|-2-1-2--2-2-|-6666-4444-2h4-|

G|-----------------|-----------------|------|
D|-----------------|-----------------|------|
A|-4-4-4-4-4-4-4-4-|-----------------|------|
E|-----------------|-4-4-4-4-4-4-4-4-|-2/14-|
comments
We did not receive enough feedback on this tab! Please rate:
print report bad tab
1 2 3 4 5
I want to post or [tab]
guest
You may want to rate the tab now too:
select rating
Please do not post tabs as comments. Select "correction" instead!