Oops, an error
Loading. Please wait.

Caught In The Sun Bass Tab

version 3
version 3

Whole song

Interactive

219 views 1 this week
no commentswrite comment
1 2 3 4 5
please rate
add to favorites
launch autoscroll
font size
0
reset
guitar tuner
Tab Pro tools
  • play this tab
  • loop segment
  • change instrument
  • show fretboard
  • metronome
Autoscroll
slow
fast
+/-
esc
set tempo
stop
Contributor
Difficulty
intermediate
Here’s a tab for a awesome song by an totally awesome band! I got tired of seeing
people get this one wrong, so here goes!

1st Verse:
Gb|-----------------------------------------|
Db|-----------7-9-7-------------------------|
Ab|---5-7-7---------5-------2-4-5-7-5-7-5-7-|
Eb|-7-------5---------3-2-3-----------------|

Gb|-----------------------------------------|
Db|-----------------------------------------|
Ab|---5-7-7---4-5-------2-4-5-7-5-7-5-7-----|
Eb|-7-------5-----3-2-3---------------------|

Gb|-----------------------------------------|
Db|-----------------------------------------|
Ab|---5-7-7---4-5-------------2--2----------|
Eb|-7-------5-----3-2-3-3-2-3--3------------|

Gb|------------------------------|
Db|------------------------------|
Ab|---5-7-7---4-5----------------|
Eb|-7-------5-----3-2-3-3-2-3----|

1st Chorus:
Gb|-----------------------------------|
Db|-----------------------------------|
Ab|-5-5-5-5-0-0-0-0-------2-2-2-0-0-0-|
Eb|-----------------3-2-3-------------|

Gb|--------------------------------|
Db|--------------------------------|
Ab|-5-5-5-5-0-0-0-0-------2-2-0----|
Eb|-----------------3-2-3----------|

2nd Verse:
Gb|-----------------------------------------|
Db|-----------7-9-7-------------------------|
Ab|---5-7-7---------5-------2-4-5-7-5-7-5-7-|
Eb|-7-------5---------3-2-3-----------------|

Gb|-----------------------------------------|
Db|-----------------------------------------|
Ab|---5-7-7---4-5-------2-4-5-7-5-7-5-7-----|
Eb|-7-------5-----3-2-3---------------------|

Gb|-----------------------------------------|
Db|-----------------------------------------|
Ab|---5-7-7---4-5-------------2--2----------|
Eb|-7-------5-----3-2-3-3-2-3--3------------|

Gb|------------------------------|
Db|------------------------------|
Ab|---5-7-7---4-5----------------|
Eb|-7-------5-----3-2-3-3-2-3----|

2nd Chorus:
Gb|-----------------------------------|
Db|-----------------------------------|
Ab|-5-5-5-5-0-0-0-0-------2-2-2-0-0-0-|
Eb|-----------------3-2-3-------------|

Gb|--------------------------------|
Db|--------------------------------|
Ab|-5-5-5-5-0-0-0-0-------2-2-0----|
Eb|-----------------3-2-3----------|

3rd Verse:
Gb|---------------------------------------------------|
Db|---------------------------------------------------|
Ab|-1-1-1-1-3-3-3-3-5-5-5-3-3-5-5-5-3-3-5-5-5-3-5-5-5-|
Eb|---------------------------------------------------|

Gb|----------------------------------------|
Db|----------------------------------------|
Ab|---5-7-7---4-5-------2-4-5-7-5-7-5-7----|
Eb|-7-------5-----3-2-3--------------------|

Gb|----------------------------------------|
Db|----------------------------------------|
Ab|---5-7-7---4-5-------------2--2---------|
Eb|-7-------5-----3-2-3-3-2-3--3-----------|

Gb|-------------------------------|
Db|-------------------------------|
Ab|---5-7-7---4-5---2-4-5-7-5-7-5-|
Eb|-7-------5-----3---------------|

3rd Chorus:
Gb|-----------------------------------|
Db|-----------------------------------|
Ab|-5-5-5-5-0-0-0-0-------2-2-2-0-0-0-|
Eb|-----------------3-2-3-------------|

Gb|--------------------------------|
Db|--------------------------------|
Ab|-5-5-5-5-0-0-0-0-------2-2-0----|
Eb|-----------------3-2-3----------|

Gb|-----------------------------------|
Db|-----------------------------------|
Ab|-5-5-5-5-0-0-0-0-------2-2-2-0-0-0-|
Eb|-----------------3-2-3-------------|

Gb|--------------------|
Db|--------------------|
Ab|-5-5-5-5-0-0-0-0----|
Eb|-----------------3--|

You're my distance, destination of choice
I'd give anything just to hear your voice
I could've passed you on the street
Without saying a word
Most times I miss the voice
That goes unheard

What if I missed you
You got caught in the sun
What if I did something
Never to be undone

People everywhere how could I be sure
If it's you that I have been looking for
What would it take for me to be comfortable
With you, with me you're the chosen one

What if I missed you
You got caught in the sun
What if I did something
Never to be undone

You are there for me this I hope and pray
You will wait for me, I won't be too late

What if I missed you
You got caught in the sun
What if I did something
Never to be undone

Will you wait for me
Or will I be too late this time
You are there for me this I hope and pray.

comments
We did not receive enough feedback on this tab! Please rate:
print report bad tab
1 2 3 4 5
I want to post or [tab]
guest
You may want to rate the tab now too:
select rating
Please do not post tabs as comments. Select "correction" instead!