Oops, an error
Loading. Please wait.

The Window Tab

205 views 1 this week
no commentswrite comment
1 2 3 4 5
please rate
add to favorites
launch autoscroll
font size
0
reset
how to read this tab
guitar tuner
Tab Pro tools
  • play this tab
  • loop segment
  • change instrument
  • show fretboard
  • metronome
Autoscroll
slow
fast
+/-
esc
set tempo
stop
Contributor
Artist: Course of Nature
Album: Damaged

Tuning: Standard (e A D G B E)

Guitar 1-Rhythm
Guitar 2-Lead

Intro (0:00-0:04)
Guitar 1 
e|-------------------|
B|-------------------|
G|-------------------|
D|-------------------|
A|4-44444-44444-44444|
E|-------------------|

Verse 1 (0:05-0:29)
Guitar 1 (Repeat 32x)
e|-------|
B|-------|
G|-------|
D|-------|
A|-44444-|
E|-------|

Verse 1 (0:05-0:29)
Guitar 2 
e|---------------|---------------|9---7---1---9---|9---7---11---12|
B|4--5-7-----10-9|4--5-7-----10-9|----------------|---------------|
G|---------------|---------------|----------------|---------------|
D|---------------|---------------|----------------|---------------|
A|---------------|---------------|----------------|---------------|
E|---------------|---------------|----------------|---------------|

Pre-Chorus 1 (0:30-37)
Guitar 1
e|---------------------------------------|
B|---------------------------------------|
G|---------------------------------------|
D|--7-----7-----0-----0-----3-----3-----5|
A|--7-----7-----0-----0-----3-----3-----5|
E|--7-----7-----0-----0-----3-----3-----5|

Chorus 1 (0:37-0:50)
Guitar 1 (Repeat 2x)
e|-----------------------------------|
B|-----------------------------------|
G|6-6-6-66-------------------4-4-4-44|
D|6-6-6-66-2-2-2-22-7-7-7-77-4-4-4-44|
A|4-4-4-44-2-2-2-22-7-7-7-77-2-2-2-22|
E|---------0-0-0-00-5-5-5-55---------|

Interlude 1 (0:51-0:57)
Guitar 1
e|-----------------------------------------------|
B|-----------------------------------------------|
G|-----------------------------------------------|
D|0-0000-3--5-0-0000-3-0--0-0000-3-5-0-0000-0-0-0|
A|0-0000-3--5-0-0000-3-0--0-0000-3-5-0-0000-0-0-0|
E|0-0000-3--5-0-0000-3-0--0-0000-3-5-0-0000-0-0-0|

Verse 2 (0:58-1:22)
Guitar 1 (Repeat 32x)
e|------------------|
B|------------------|
G|------------------|
D|------------------|
A|-44444-44444-44444|
E|------------------|

Verse 2 (0:58-1:22)
Guitar 2 
e|---------------|---------------|9---7---1---9---|9---7---11---12|
B|4--5-7-----10-9|4--5-7-----10-9|----------------|---------------|
G|---------------|---------------|----------------|---------------|
D|---------------|---------------|----------------|---------------|
A|---------------|---------------|----------------|---------------|
E|---------------|---------------|----------------|---------------|

Pre-Chorus 2 (1:23-1:29)
Guitar 1
e|-------------------------------------------------|
B|-------------------------------------------------|
G|-------------------------------------------------|
D|--7-----7-----0-----0-----3-----3-----5-5-5-5-5-5|
A|--7-----7-----0-----0-----3-----3-----5-5-5-5-5-5|
E|--7-----7-----0-----0-----3-----3-----5-5-5-5-5-5|

Chorus 2 (1:30-1:57)
Guitar 1 (Repeat 3x)
e|-----------------------------------|-----------------------------|
B|-----------------------------------|-----------------------------|
G|6-6-6-66-------------------4-4-4-44|6---6-------------------4---4|
D|6-6-6-66-2-2-2-22-7-7-7-77-4-4-4-44|6---6--2---2---7---7----4---4|
A|4-4-4-44-2-2-2-22-7-7-7-77-2-2-2-22|4---4--2---2---7---7----2---2|
E|---------0-0-0-00-5-5-5-55---------|-------0---0---5---5---------|

Bridge Part 1 (1:58-2:09)
Guitar 1 (Repeat 16x)
e|-----------------------------|
B|-----------------------------|
G|-x-xxxxx---------------------|
D|-x-xxxxx---------------------|
A|-x-xxxxx---------------------|
E|-----------------------------|

Bridge Part 1 (1:58-2:09)
Guitar 2
e|-4--------4--------4--------16----4----4----16----16----4----4----16----16|
B|--------------------------------------------------------------------------|
G|--------------------------------------------------------------------------|
D|--------------------------------------------------------------------------|
A|--------------------------------------------------------------------------|
E|--------------------------------------------------------------------------|

Bridge Part 2 (2:10-2:22)
Guitar 1 (Repeat 2x)
e|-----------------------|
B|-----------------------|
G|-6---4---2-------------|
D|-6---4---2---6---------|
A|-4---2---0---6---------|
E|-------------4---------|

Solo (2:23-2:36)
Guitar 1 (Repeat 2x)                     (Second play ends with this)
e|-------------------------------------|---------------|
B|-------------------------------------|---------------|
G|-6------------------------4-4-4-44---|--------44-444-|
D|-6-0-00-2-2-2-22-7-7-7-77-4-4-4-44---|77-777-744-444-|
A|-4-0-00-2-2-2-22-7-7-7-77-2-2-2-22---|77-777-744-444-|
E|---0-00-0-0-0-00-5-5-5-55------------|55-555-5-------|

Solo (2:23-2:36)
Guitar 2 (Repeat 2x)                             (Second play ends with this)
e|9-9-9-1111-7-7-7-77-1111-9-9-9-99-12-12-11-1111|12-12-12-12-14-14-14-14-14|
B|-----------------------------------------------|--------------------------|
G|-----------------------------------------------|--------------------------|
D|-----------------------------------------------|--------------------------|
A|-----------------------------------------------|--------------------------|
E|-----------------------------------------------|--------------------------|

Chorus 3 (2:36-3:01)
Guitar 1 (Repeat 3x)
e|-----------------------------------|-----------------------------|
B|-----------------------------------|-----------------------------|
G|6-6-6-66-------------------4-4-4-44|6---6-------------------4---4|
D|6-6-6-66-2-2-2-22-7-7-7-77-4-4-4-44|6---6--2---2---7---7----4---4|
A|4-4-4-44-2-2-2-22-7-7-7-77-2-2-2-22|4---4--2---2---7---7----2---2|
E|---------0-0-0-00-5-5-5-55---------|-------0---0---5---5---------|


Outro
Guitar 1 (3:02-End)
e|------------------------------------|
B|------------------------------------|
G|-6-6-6-6-6-6-6-6-6-6-6-6-6-6-6-6-6-6|
D|-6-6-6-6-6-6-6-6-6-6-6-6-6-6-6-6-6-6|
A|-4-4-4-4-4-4-4-4-4-4-4-4-4-4-4-4-4-4|
E|------------------------------------|
comments
We did not receive enough feedback on this tab! Please rate:
print report bad tab
1 2 3 4 5
I want to post or [tab]
guest
You may want to rate the tab now too:
select rating
Please do not post tabs as comments. Select "correction" instead!