Oops, an error
Loading. Please wait.

Pedestrian At Best bass

199 views 12 this week
1 commentread comment
1 2 3 4 5
3 more votes to show rating
add to favorites
×
Save as Personal and add changes to this tab that will be seen only by you. Learn more ›
×
You can save this tab as Personal to edit and correct it or add notes. All changes will be seen only by you. Learn more »
launch autoscroll
font size
0
reset
guitar tuner
edit
Autoscroll
slow
fast
+/-
esc
set tempo
stop
About this tab version
This is a tab for the song "Pedestrian At Best" by Courtney Barnett, it's all pretty straightforward. Was this info helpful? Yes No
[Intro]
G|---------------------------------------------------------------------------|
D|---------------------------------------------------------------------------|
A|---------------------------------------------------------------------------|
E|-2-02-02-0205--------------------------------------------------------------|

[Verse]
G|---------------------------------------------------------------------------|
D|---------------------------------------------------------------------------|
A|---------------------------------------------------------------------------|
E|-2-02-02-020502-02-02-020205-----------------------------------------------|

[Chorus]
G|---------------------------------------------------------------------------|
D|---------------------------------------------------------------------------|
A|---------------------------------------------------------------------------|
E|-2-222-00-5-555-77---------------------------------------------------------|

[Verse]
G|---------------------------------------------------------------------------|
D|---------------------------------------------------------------------------|
A|---------------------------------------------------------------------------|
E|-2-02-02-020502-02-02-020205-----------------------------------------------|

[Chorus]
G|---------------------------------------------------------------------------|
D|---------------------------------------------------------------------------|
A|---------------------------------------------------------------------------|
E|-2-222-00-5-555-77---------------------------------------------------------|

[Verse]
G|---------------------------------------------------------------------------|
D|---------------------------------------------------------------------------|
A|---------------------------------------------------------------------------|
E|-2-02-02-0205--------------------------------------------------------------|

[other part]
G|---------------------------------------------------------------------------|
D|---------------------------------------------------------------------------|
A|---------------------------------------------------------------------------|
E|-14141414141414141414141414-02-02-0205-------------------------------------|

[Chorus] 
(repeat until ending)
G|---------------------------------------------------------------------------|
D|---------------------------------------------------------------------------|
A|---------------------------------------------------------------------------|
E|-2-222-00-5-555-77---------------------------------------------------------|

            
            
Suggest correction
Creating personal tab
Creating personal tab
You can edit any tab online and save it as your Personal.

You can edit, replace or remove any tab part or add personal notes – all changes will be seen only by you.

Personal tabs can be accessed anytime from any device, even offline.
Learn more »
Give kudos to tab author, rate the tab!
1 2 3 4 5
comments
print report bad tab
1 comment total.
0 reply
james.l.power 74 Jul 31, 2017 06:25 AM

when you do the 'other part' can you please put what minute and second it is

guest
You may want to rate the tab now too:
select rating
Wanna post a correction for this tab? Suggest correction